  0
SECTION
  2
HEADER
  9
$ACADVER
  1
AC1009
  9
$INSBASE
 10
0.0
 20
0.0
 30
0.0
  9
$EXTMIN
 10
-3.2038567088020491
 20
-2.265584386936097
 30
-0.000000000000013
  9
$EXTMAX
 10
42000.000195601599
 20
29700.000138318279
 30
0.0000000000000023
  9
$LIMMIN
 10
0.0
 20
0.0
  9
$LIMMAX
 10
42000.0
 20
29700.0
  9
$ORTHOMODE
 70
     0
  9
$REGENMODE
 70
     1
  9
$FILLMODE
 70
     1
  9
$QTEXTMODE
 70
     0
  9
$MIRRTEXT
 70
     0
  9
$DRAGMODE
 70
     2
  9
$LTSCALE
 40
100.0
  9
$OSMODE
 70
    37
  9
$ATTMODE
 70
     1
  9
$TEXTSIZE
 40
200.0
  9
$TRACEWID
 40
1.0
  9
$TEXTSTYLE
  7
A3_1-100_
  9
$CLAYER
  8
0
  9
$CELTYPE
  6
BYLAYER
  9
$CECOLOR
 62
   256
  9
$DIMSCALE
 40
100.0
  9
$DIMASZ
 40
3.0
  9
$DIMEXO
 40
5.0
  9
$DIMDLI
 40
3.75
  9
$DIMRND
 40
0.0
  9
$DIMDLE
 40
0.0
  9
$DIMEXE
 40
1.25
  9
$DIMTP
 40
0.0
  9
$DIMTM
 40
0.0
  9
$DIMTXT
 40
200.0
  9
$DIMCEN
 40
2.5
  9
$DIMTSZ
 40
0.0
  9
$DIMTOL
 70
     0
  9
$DIMLIM
 70
     0
  9
$DIMTIH
 70
     0
  9
$DIMTOH
 70
     0
  9
$DIMSE1
 70
     0
  9
$DIMSE2
 70
     0
  9
$DIMTAD
 70
     1
  9
$DIMZIN
 70
     8
  9
$DIMBLK
  1
DOTSMALL
  9
$DIMASO
 70
     1
  9
$DIMSHO
 70
     1
  9
$DIMPOST
  1

  9
$DIMAPOST
  1

  9
$DIMALT
 70
     0
  9
$DIMALTD
 70
     3
  9
$DIMALTF
 40
0.03937007874016
  9
$DIMLFAC
 40
1.0
  9
$DIMTOFL
 70
     1
  9
$DIMTVP
 40
0.0
  9
$DIMTIX
 70
     0
  9
$DIMSOXD
 70
     0
  9
$DIMSAH
 70
     0
  9
$DIMBLK1
  1

  9
$DIMBLK2
  1

  9
$DIMSTYLE
  2
A3-100
  9
$DIMCLRD
 70
     0
  9
$DIMCLRE
 70
     0
  9
$DIMCLRT
 70
     0
  9
$DIMTFAC
 40
1.0
  9
$DIMGAP
 40
0.625
  9
$LUNITS
 70
     2
  9
$LUPREC
 70
     0
  9
$SKETCHINC
 40
1.0
  9
$FILLETRAD
 40
0.0
  9
$AUNITS
 70
     0
  9
$AUPREC
 70
     0
  9
$MENU
  1
.
  9
$ELEVATION
 40
0.0
  9
$PELEVATION
 40
0.0
  9
$THICKNESS
 40
0.0
  9
$LIMCHECK
 70
     0
  9
$BLIPMODE
 70
     0
  9
$CHAMFERA
 40
0.0
  9
$CHAMFERB
 40
0.0
  9
$SKPOLY
 70
     0
  9
$TDCREATE
 40
2454883.429683669
  9
$TDUPDATE
 40
2455803.6400091322
  9
$TDINDWG
 40
0.0356084491
  9
$TDUSRTIMER
 40
0.0356082176
  9
$USRTIMER
 70
     1
  9
$ANGBASE
 50
0.0
  9
$ANGDIR
 70
     0
  9
$PDMODE
 70
     0
  9
$PDSIZE
 40
0.0
  9
$PLINEWID
 40
0.0
  9
$COORDS
 70
     1
  9
$SPLFRAME
 70
     0
  9
$SPLINETYPE
 70
     6
  9
$SPLINESEGS
 70
     8
  9
$ATTDIA
 70
     0
  9
$ATTREQ
 70
     1
  9
$HANDLING
 70
     1
  9
$HANDSEED
  5
41D
  9
$SURFTAB1
 70
     6
  9
$SURFTAB2
 70
     6
  9
$SURFTYPE
 70
     6
  9
$SURFU
 70
     6
  9
$SURFV
 70
     6
  9
$UCSNAME
  2

  9
$UCSORG
 10
0.0
 20
0.0
 30
0.0
  9
$UCSXDIR
 10
1.0
 20
0.0
 30
0.0
  9
$UCSYDIR
 10
0.0
 20
1.0
 30
0.0
  9
$PUCSNAME
  2

  9
$PUCSORG
 10
0.0
 20
0.0
 30
0.0
  9
$PUCSXDIR
 10
1.0
 20
0.0
 30
0.0
  9
$PUCSYDIR
 10
0.0
 20
1.0
 30
0.0
  9
$USERI1
 70
     0
  9
$USERI2
 70
     0
  9
$USERI3
 70
     0
  9
$USERI4
 70
     0
  9
$USERI5
 70
     0
  9
$USERR1
 40
0.0
  9
$USERR2
 40
0.0
  9
$USERR3
 40
0.0
  9
$USERR4
 40
0.0
  9
$USERR5
 40
0.0
  9
$WORLDVIEW
 70
     1
  9
$SHADEDGE
 70
     3
  9
$SHADEDIF
 70
    70
  9
$TILEMODE
 70
     1
  9
$MAXACTVP
 70
    64
  9
$PLIMCHECK
 70
     0
  9
$PEXTMIN
 10
1.0000000000000000E+020
 20
1.0000000000000000E+020
 30
1.0000000000000000E+020
  9
$PEXTMAX
 10
-1.0000000000000000E+020
 20
-1.0000000000000000E+020
 30
-1.0000000000000000E+020
  9
$PLIMMIN
 10
0.0
 20
0.0
  9
$PLIMMAX
 10
420.0
 20
297.0
  9
$UNITMODE
 70
     0
  9
$VISRETAIN
 70
     1
  9
$PLINEGEN
 70
     0
  9
$PSLTSCALE
 70
     1
  0
ENDSEC
  0
SECTION
  2
TABLES
  0
TABLE
  2
VPORT
 70
     1
  0
VPORT
  2
*ACTIVE
 70
     0
 10
0.0
 20
0.0
 11
1.0
 21
1.0
 12
20998.398169446398
 22
14848.86727696567
 13
0.0
 23
0.0
 14
10.0
 24
10.0
 15
10.0
 25
10.0
 16
0.0
 26
0.0
 36
1.0
 17
0.0
 27
0.0
 37
0.0
 40
29990.17136783645
 41
2.3025889967637529
 42
50.0
 43
0.0
 44
0.0
 50
0.0
 51
0.0
 71
     0
 72
  1000
 73
     1
 74
     3
 75
     0
 76
     1
 77
     0
 78
     0
  0
ENDTAB
  0
TABLE
  2
LTYPE
 70
     3
  0
LTYPE
  2
CONTINUOUS
 70
     0
  3
Solid line
 72
    65
 73
     0
 40
0.0
  0
LTYPE
  2
DASHED2
 70
     0
  3
Dashed (.5x) _ _ _ _ _ _ _ _ _ _ _ _ _ _ _ _ _
 72
    65
 73
     2
 40
9.5249999999999986
 49
6.3499999999999988
 49
-3.1749999999999989
  0
ENDTAB
  0
TABLE
  2
LAYER
 70
     3
  0
LAYER
  2
0
 70
     0
 62
     7
  6
CONTINUOUS
  0
LAYER
  2
図面枠
 70
     0
 62
     7
  6
CONTINUOUS
  0
LAYER
  2
DEFPOINTS
 70
     0
 62
     7
  6
CONTINUOUS
  0
ENDTAB
  0
TABLE
  2
STYLE
 70
    10
  0
STYLE
  2
STANDARD
 70
     0
 40
200.0
 41
1.0
 50
0.0
 71
     0
 42
200.0
  3
txt
  4

  0
STYLE
  2
A3_1-100_
 70
     0
 40
200.0
 41
1.0
 50
0.0
 71
     0
 42
200.0
  3
txt
  4

  0
STYLE
  2

 70
     1
 40
0.0
 41
1.0
 50
0.0
 71
     0
 42
200.0
  3
ltypeshp.shx
  4

  0
ENDTAB
  0
TABLE
  2
VIEW
 70
     1
  0
ENDTAB
  0
TABLE
  2
UCS
 70
     0
  0
ENDTAB
  0
TABLE
  2
APPID
 70
     8
  0
APPID
  2
ACAD
 70
     0
  0
APPID
  2
ACADANNOPO
 70
     0
  0
APPID
  2
ACAD_DSTYLE_DIMJAG
 70
     0
  0
APPID
  2
ACAD_DSTYLE_DIMTALN
 70
     0
  0
APPID
  2
ACAD_EXEMPT_FROM_CAD_STANDARDS
 70
     0
  0
APPID
  2
ACAD_NAV_VCDISPLAY
 70
     0
  0
APPID
  2
ACAD_PSEXT
 70
     0
  0
APPID
  2
ACAD_MLEADERVER
 70
     0
  0
ENDTAB
  0
TABLE
  2
DIMSTYLE
 70
    10
  0
DIMSTYLE
  2
ISO-25
 70
     0
  3

  4

  5

  6

  7

 40
1.0
 41
2.5
 42
0.625
 43
3.75
 44
1.25
 45
0.0
 46
0.0
 47
0.0
 48
0.0
140
2.5
141
2.5
142
0.0
143
0.03937007874016
144
1.0
145
0.0
146
1.0
147
0.625
 71
     0
 72
     0
 73
     0
 74
     0
 75
     0
 76
     0
 77
     1
 78
     8
170
     0
171
     3
172
     1
173
     0
174
     0
175
     0
176
     0
177
     0
178
     0
  0
DIMSTYLE
  2
A3-100
 70
     0
  3

  4

  5
DOTSMALL
  6

  7

 40
100.0
 41
3.0
 42
5.0
 43
3.75
 44
1.25
 45
0.0
 46
0.0
 47
0.0
 48
0.0
140
200.0
141
2.5
142
0.0
143
0.03937007874016
144
1.0
145
0.0
146
1.0
147
0.625
 71
     0
 72
     0
 73
     0
 74
     0
 75
     0
 76
     0
 77
     1
 78
     8
170
     0
171
     3
172
     1
173
     0
174
     0
175
     0
176
     0
177
     0
178
     0
  0
ENDTAB
  0
ENDSEC
  0
SECTION
  2
BLOCKS
  0
BLOCK
  8
0
  2
$MODEL_SPACE
 70
     0
 10
0.0
 20
0.0
 30
0.0
  3
$MODEL_SPACE
  1

  0
ENDBLK
  5
23
  8
0
  0
BLOCK
 67
     1
  8
0
  2
$PAPER_SPACE
 70
     0
 10
0.0
 20
0.0
 30
0.0
  3
$PAPER_SPACE
  1

  0
ENDBLK
  5
1F
 67
     1
  8
0
  0
BLOCK
  8
0
  2
_DOTSMALL
 70
     0
 10
0.0
 20
0.0
 30
0.0
  3
_DOTSMALL
  1

  0
POLYLINE
  5
53
  8
0
  6
BYBLOCK
 62
     0
 66
     1
 10
0.0
 20
0.0
 30
0.0
 70
     1
 40
0.5
 41
0.5
  0
VERTEX
  5
35B
  8
0
  6
BYBLOCK
 62
     0
 10
-0.0625
 20
0.0
 30
0.0
 42
1.0
  0
VERTEX
  5
35C
  8
0
  6
BYBLOCK
 62
     0
 10
0.0625
 20
0.0
 30
0.0
 42
1.0
  0
SEQEND
  5
35D
  8
0
  6
BYBLOCK
 62
     0
  0
ENDBLK
  5
55
  8
0
  0
BLOCK
  8
0
  2
_OPEN30
 70
     0
 10
0.0
 20
0.0
 30
0.0
  3
_OPEN30
  1

  0
LINE
  5
57
  8
0
  6
BYBLOCK
 62
     0
 10
-1.0
 20
0.26794919
 30
0.0
 11
0.0
 21
0.0
 31
0.0
  0
LINE
  5
58
  8
0
  6
BYBLOCK
 62
     0
 10
0.0
 20
0.0
 30
0.0
 11
-1.0
 21
-0.26794919
 31
0.0
  0
LINE
  5
59
  8
0
  6
BYBLOCK
 62
     0
 10
0.0
 20
0.0
 30
0.0
 11
-1.0
 21
0.0
 31
0.0
  0
ENDBLK
  5
5B
  8
0
  0
BLOCK
  8
0
  2
_DOT
 70
     0
 10
0.0
 20
0.0
 30
0.0
  3
_DOT
  1

  0
POLYLINE
  5
10C
  8
0
  6
BYBLOCK
 62
     0
 66
     1
 10
0.0
 20
0.0
 30
0.0
 70
     1
 40
0.5
 41
0.5
  0
VERTEX
  5
389
  8
0
  6
BYBLOCK
 62
     0
 10
-0.25
 20
0.0
 30
0.0
 42
1.0
  0
VERTEX
  5
38A
  8
0
  6
BYBLOCK
 62
     0
 10
0.25
 20
0.0
 30
0.0
 42
1.0
  0
SEQEND
  5
38B
  8
0
  6
BYBLOCK
 62
     0
  0
LINE
  5
10D
  8
0
  6
BYBLOCK
 62
     0
 10
-0.5
 20
0.0
 30
0.0
 11
-1.0
 21
0.0
 31
0.0
  0
ENDBLK
  5
10F
  8
0
  0
BLOCK
  8
0
  2
*D7
 70
     1
 10
0.0
 20
0.0
 30
0.0
  3
*D7
  1

  0
LINE
  5
1E3
  8
0
 62
     0
 10
42500.0
 20
-0.0000000000001416
 30
0.0
 11
47791.123713878987
 21
-0.0000000000016405
 31
0.0
  0
LINE
  5
1E4
  8
0
 62
     0
 10
42500.0
 20
29700.0
 30
0.0
 11
47791.123713879002
 21
29700.0
 31
0.0
  0
LINE
  5
1E5
  8
0
 62
     0
 10
47666.123713878987
 20
-0.0000000000016051
 30
0.0
 11
47666.123713879002
 21
29700.0
 31
0.0
  0
INSERT
  5
1E6
  8
0
 62
     0
  2
_DOTSMALL
 10
47666.123713878987
 20
-0.0000000000016051
 30
0.0
 41
300.0
 42
300.0
 43
300.0
 50
270.0
  0
INSERT
  5
1E7
  8
0
 62
     0
  2
_DOTSMALL
 10
47666.123713879002
 20
29700.0
 30
0.0
 41
300.0
 42
300.0
 43
300.0
 50
90.0
  0
INSERT
  5
1E8
  8
0
  2
*U41
 10
0.0
 20
0.0
 30
0.0
  0
POINT
  5
1E9
  8
DEFPOINTS
 62
     0
 10
42000.0
 20
0.0
 30
0.0
  0
POINT
  5
1EA
  8
DEFPOINTS
 62
     0
 10
42000.0
 20
29700.0
 30
0.0
  0
POINT
  5
1EB
  8
DEFPOINTS
 62
     0
 10
47666.123713879002
 20
29700.0
 30
0.0
  0
ENDBLK
  5
1D8
  8
0
  0
BLOCK
  8
0
  2
*U13
 70
     1
 10
0.0
 20
0.0
 30
0.0
  3
*U13
  1

  0
TEXT
  5
3A0
  8
0
 10
3490.0800247061989
 20
1104.98202345921
 30
0.0
 40
288.12
  1
1
  7
A3_1-100_
  0
ENDBLK
  5
3A2
  8
0
  0
BLOCK
  8
0
  2
*U14
 70
     1
 10
0.0
 20
0.0
 30
0.0
  3
*U14
  1

  0
TEXT
  5
3A4
  8
0
 10
8483.0686610698267
 20
1104.98202345921
 30
0.0
 40
288.12
  1
2
  7
A3_1-100_
  0
ENDBLK
  5
3A6
  8
0
  0
BLOCK
  8
0
  2
*U15
 70
     1
 10
0.0
 20
0.0
 30
0.0
  3
*U15
  1

  0
TEXT
  5
3A8
  8
0
 10
13453.13866106983
 20
1104.98202345921
 30
0.0
 40
288.12
  1
3
  7
A3_1-100_
  0
ENDBLK
  5
3AA
  8
0
  0
BLOCK
  8
0
  2
*U16
 70
     1
 10
0.0
 20
0.0
 30
0.0
  3
*U16
  1

  0
TEXT
  5
3AC
  8
0
 10
18429.756842888
 20
1104.98202345921
 30
0.0
 40
288.12
  1
4
  7
A3_1-100_
  0
ENDBLK
  5
3AE
  8
0
  0
BLOCK
  8
0
  2
*U17
 70
     1
 10
0.0
 20
0.0
 30
0.0
  3
*U17
  1

  0
TEXT
  5
3B0
  8
0
 10
23393.278661069831
 20
1104.98202345921
 30
0.0
 40
288.12
  1
5
  7
A3_1-100_
  0
ENDBLK
  5
3B2
  8
0
  0
BLOCK
  8
0
  2
*U18
 70
     1
 10
0.0
 20
0.0
 30
0.0
  3
*U18
  1

  0
TEXT
  5
3B4
  8
0
 10
28361.711615615281
 20
1104.98202345921
 30
0.0
 40
288.12
  1
6
  7
A3_1-100_
  0
ENDBLK
  5
3B6
  8
0
  0
BLOCK
  8
0
  2
*U19
 70
     1
 10
0.0
 20
0.0
 30
0.0
  3
*U19
  1

  0
TEXT
  5
3B8
  8
0
 10
33326.870479251651
 20
1104.98202345921
 30
0.0
 40
288.12
  1
7
  7
A3_1-100_
  0
ENDBLK
  5
3BA
  8
0
  0
BLOCK
  8
0
  2
*U20
 70
     1
 10
0.0
 20
0.0
 30
0.0
  3
*U20
  1

  0
TEXT
  5
3BC
  8
0
 10
38305.125706524377
 20
1104.98202345921
 30
0.0
 40
288.12
  1
8
  7
A3_1-100_
  0
ENDBLK
  5
3BE
  8
0
  0
BLOCK
  8
0
  2
*U21
 70
     1
 10
0.0
 20
0.0
 30
0.0
  3
*U21
  1

  0
TEXT
  5
3C0
  8
0
 10
3490.0800247062052
 20
28380.342023459209
 30
0.0
 40
288.12
  1
1
  7
A3_1-100_
  0
ENDBLK
  5
3C2
  8
0
  0
BLOCK
  8
0
  2
*U22
 70
     1
 10
0.0
 20
0.0
 30
0.0
  3
*U22
  1

  0
TEXT
  5
3C4
  8
0
 10
8483.068661069834
 20
28380.342023459209
 30
0.0
 40
288.12
  1
2
  7
A3_1-100_
  0
ENDBLK
  5
3C6
  8
0
  0
BLOCK
  8
0
  2
*U23
 70
     1
 10
0.0
 20
0.0
 30
0.0
  3
*U23
  1

  0
TEXT
  5
3C8
  8
0
 10
13453.13866106983
 20
28380.342023459209
 30
0.0
 40
288.12
  1
3
  7
A3_1-100_
  0
ENDBLK
  5
3CA
  8
0
  0
BLOCK
  8
0
  2
*U24
 70
     1
 10
0.0
 20
0.0
 30
0.0
  3
*U24
  1

  0
TEXT
  5
3CC
  8
0
 10
18429.756842888011
 20
28380.342023459209
 30
0.0
 40
288.12
  1
4
  7
A3_1-100_
  0
ENDBLK
  5
3CE
  8
0
  0
BLOCK
  8
0
  2
*U25
 70
     1
 10
0.0
 20
0.0
 30
0.0
  3
*U25
  1

  0
TEXT
  5
3D0
  8
0
 10
23393.278661069831
 20
28380.342023459209
 30
0.0
 40
288.12
  1
5
  7
A3_1-100_
  0
ENDBLK
  5
3D2
  8
0
  0
BLOCK
  8
0
  2
*U26
 70
     1
 10
0.0
 20
0.0
 30
0.0
  3
*U26
  1

  0
TEXT
  5
3D4
  8
0
 10
28361.711615615292
 20
28380.342023459209
 30
0.0
 40
288.12
  1
6
  7
A3_1-100_
  0
ENDBLK
  5
3D6
  8
0
  0
BLOCK
  8
0
  2
*U27
 70
     1
 10
0.0
 20
0.0
 30
0.0
  3
*U27
  1

  0
TEXT
  5
3D8
  8
0
 10
33326.870479251651
 20
28380.342023459209
 30
0.0
 40
288.12
  1
7
  7
A3_1-100_
  0
ENDBLK
  5
3DA
  8
0
  0
BLOCK
  8
0
  2
*U28
 70
     1
 10
0.0
 20
0.0
 30
0.0
  3
*U28
  1

  0
TEXT
  5
3DC
  8
0
 10
38305.125706524377
 20
28380.342023459209
 30
0.0
 40
288.12
  1
8
  7
A3_1-100_
  0
ENDBLK
  5
3DE
  8
0
  0
BLOCK
  8
0
  2
*U29
 70
     1
 10
0.0
 20
0.0
 30
0.0
  3
*U29
  1

  0
TEXT
  5
3E0
  8
0
 10
1332.2725286401651
 20
26374.759929020089
 30
0.0
 40
288.12
  1
A
  7
A3_1-100_
  0
ENDBLK
  5
3E2
  8
0
  0
BLOCK
  8
0
  2
*U30
 70
     1
 10
0.0
 20
0.0
 30
0.0
  3
*U30
  1

  0
TEXT
  5
3E4
  8
0
 10
1309.353892276529
 20
21716.81992902009
 30
0.0
 40
288.12
  1
B
  7
A3_1-100_
  0
ENDBLK
  5
3E6
  8
0
  0
BLOCK
  8
0
  2
*U31
 70
     1
 10
0.0
 20
0.0
 30
0.0
  3
*U31
  1

  0
TEXT
  5
3E8
  8
0
 10
1314.2650286401649
 20
17058.879929020091
 30
0.0
 40
288.12
  1
C
  7
A3_1-100_
  0
ENDBLK
  5
3EA
  8
0
  0
BLOCK
  8
0
  2
*U32
 70
     1
 10
0.0
 20
0.0
 30
0.0
  3
*U32
  1

  0
TEXT
  5
3EC
  8
0
 10
1309.353892276529
 20
12400.93992902008
 30
0.0
 40
288.12
  1
D
  7
A3_1-100_
  0
ENDBLK
  5
3EE
  8
0
  0
BLOCK
  8
0
  2
*U33
 70
     1
 10
0.0
 20
0.0
 30
0.0
  3
*U33
  1

  0
TEXT
  5
3F0
  8
0
 10
1309.353892276529
 20
7742.9999290200858
 30
0.0
 40
288.12
  1
E
  7
A3_1-100_
  0
ENDBLK
  5
3F2
  8
0
  0
BLOCK
  8
0
  2
*U34
 70
     1
 10
0.0
 20
0.0
 30
0.0
  3
*U34
  1

  0
TEXT
  5
3F4
  8
0
 10
1304.4427559128931
 20
3085.059929020088
 30
0.0
 40
288.12
  1
F
  7
A3_1-100_
  0
ENDBLK
  5
3F6
  8
0
  0
BLOCK
  8
0
  2
*U35
 70
     1
 10
0.0
 20
0.0
 30
0.0
  3
*U35
  1

  0
TEXT
  5
3F8
  8
0
 10
40420.552528640168
 20
26374.759929020089
 30
0.0
 40
288.12
  1
A
  7
A3_1-100_
  0
ENDBLK
  5
3FA
  8
0
  0
BLOCK
  8
0
  2
*U36
 70
     1
 10
0.0
 20
0.0
 30
0.0
  3
*U36
  1

  0
TEXT
  5
3FC
  8
0
 10
40397.633892276528
 20
21716.81992902009
 30
0.0
 40
288.12
  1
B
  7
A3_1-100_
  0
ENDBLK
  5
3FE
  8
0
  0
BLOCK
  8
0
  2
*U37
 70
     1
 10
0.0
 20
0.0
 30
0.0
  3
*U37
  1

  0
TEXT
  5
400
  8
0
 10
40402.545028640161
 20
17058.879929020091
 30
0.0
 40
288.12
  1
C
  7
A3_1-100_
  0
ENDBLK
  5
402
  8
0
  0
BLOCK
  8
0
  2
*U38
 70
     1
 10
0.0
 20
0.0
 30
0.0
  3
*U38
  1

  0
TEXT
  5
404
  8
0
 10
40397.633892276528
 20
12400.93992902008
 30
0.0
 40
288.12
  1
D
  7
A3_1-100_
  0
ENDBLK
  5
406
  8
0
  0
BLOCK
  8
0
  2
*U39
 70
     1
 10
0.0
 20
0.0
 30
0.0
  3
*U39
  1

  0
TEXT
  5
408
  8
0
 10
40397.633892276528
 20
7742.9999290200858
 30
0.0
 40
288.12
  1
E
  7
A3_1-100_
  0
ENDBLK
  5
40A
  8
0
  0
BLOCK
  8
0
  2
*U40
 70
     1
 10
0.0
 20
0.0
 30
0.0
  3
*U40
  1

  0
TEXT
  5
40C
  8
0
 10
40392.722755912888
 20
3085.0599290200889
 30
0.0
 40
288.12
  1
F
  7
A3_1-100_
  0
ENDBLK
  5
40E
  8
0
  0
BLOCK
  8
0
  2
*U41
 70
     1
 10
0.0
 20
0.0
 30
0.0
  3
*U41
  1

  0
TEXT
  5
415
  8
0
 62
     0
 10
47603.623713878987
 20
14484.09090909091
 30
0.0
 40
200.0
  1
29700
 50
90.0
  7
A3_1-100_
  0
ENDBLK
  5
417
  8
0
  0
ENDSEC
  0
SECTION
  2
ENTITIES
  0
LINE
  5
30
  8
図面枠
 10
1792.0
 20
1548.46
 30
0.0
 11
40208.0
 21
1548.46
 31
0.0
  0
LINE
  5
31
  8
図面枠
 10
40208.0
 20
1548.46
 30
0.0
 11
40208.0
 21
28151.540000000001
 31
0.0
  0
LINE
  5
32
  8
図面枠
 10
40208.0
 20
28151.540000000001
 30
0.0
 11
1792.0
 21
28151.540000000001
 31
0.0
  0
LINE
  5
33
  8
図面枠
 10
1792.0
 20
28151.540000000001
 30
0.0
 11
1792.0
 21
1548.46
 31
0.0
  0
POLYLINE
  5
156
  8
0
 66
     1
 10
0.0
 20
0.0
 30
0.0
 70
     1
  0
VERTEX
  5
39A
  8
0
 10
1119.72
 20
876.18000000000063
 30
0.0
  0
VERTEX
  5
39B
  8
0
 10
40880.279999999999
 20
876.18000000000063
 30
0.0
  0
VERTEX
  5
39C
  8
0
 10
40880.279999999999
 20
28823.82
 30
0.0
  0
VERTEX
  5
39D
  8
0
 10
1119.72
 20
28823.82
 30
0.0
  0
SEQEND
  5
39E
  8
0
  0
LINE
  5
15C
  8
0
 10
20999.999999999989
 20
876.18000000000063
 30
0.0
 11
20999.999999999989
 21
2220.7400000000011
 31
0.0
  0
LINE
  5
15D
  8
0
 10
21000.0
 20
28823.82
 30
0.0
 11
21000.0
 21
27479.259999999998
 31
0.0
  0
LINE
  5
15E
  8
0
 10
40880.279999999999
 20
14850.0
 30
0.0
 11
39535.720000000001
 21
14850.0
 31
0.0
  0
LINE
  5
15F
  8
0
 10
1119.72
 20
14850.0
 30
0.0
 11
2464.2800000000011
 21
14850.0
 31
0.0
  0
LINE
  5
160
  8
0
 10
25970.069999999989
 20
876.18000000000063
 30
0.0
 11
25970.069999999989
 21
1548.46
 31
0.0
  0
LINE
  5
161
  8
0
 10
16029.929999999989
 20
876.18000000000109
 30
0.0
 11
16029.929999999989
 21
1548.4600000000009
 31
0.0
  0
LINE
  5
162
  8
0
 10
11059.85999999999
 20
876.18000000000109
 30
0.0
 11
11059.85999999999
 21
1548.4600000000009
 31
0.0
  0
LINE
  5
163
  8
0
 10
6089.7899999999927
 20
876.18000000000109
 30
0.0
 11
6089.7899999999927
 21
1548.4600000000009
 31
0.0
  0
LINE
  5
164
  8
0
 10
30940.139999999989
 20
876.18000000000063
 30
0.0
 11
30940.139999999989
 21
1548.46
 31
0.0
  0
LINE
  5
165
  8
0
 10
35910.209999999999
 20
876.18000000000063
 30
0.0
 11
35910.209999999999
 21
1548.46
 31
0.0
  0
LINE
  5
166
  8
0
 10
25970.07
 20
28151.540000000001
 30
0.0
 11
25970.07
 21
28823.82
 31
0.0
  0
LINE
  5
167
  8
0
 10
30940.139999999999
 20
28151.540000000001
 30
0.0
 11
30940.139999999999
 21
28823.82
 31
0.0
  0
LINE
  5
168
  8
0
 10
35910.209999999999
 20
28151.540000000001
 30
0.0
 11
35910.209999999999
 21
28823.82
 31
0.0
  0
LINE
  5
169
  8
0
 10
16029.93
 20
28151.540000000001
 30
0.0
 11
16029.93
 21
28823.82
 31
0.0
  0
LINE
  5
16A
  8
0
 10
11059.860000000001
 20
28151.540000000001
 30
0.0
 11
11059.860000000001
 21
28823.82
 31
0.0
  0
LINE
  5
16B
  8
0
 10
6089.79
 20
28151.540000000001
 30
0.0
 11
6089.79
 21
28823.82
 31
0.0
  0
LINE
  5
170
  8
0
 10
1119.72
 20
19507.939999999999
 30
0.0
 11
1792.0
 21
19507.939999999999
 31
0.0
  0
LINE
  5
171
  8
0
 10
1119.72
 20
24165.880000000001
 30
0.0
 11
1792.0
 21
24165.880000000001
 31
0.0
  0
LINE
  5
172
  8
0
 10
1119.72
 20
10192.059999999999
 30
0.0
 11
1792.0
 21
10192.059999999999
 31
0.0
  0
LINE
  5
173
  8
0
 10
1119.72
 20
5534.1199999999999
 30
0.0
 11
1792.0
 21
5534.1199999999999
 31
0.0
  0
LINE
  5
174
  8
0
 10
40208.0
 20
10192.059999999999
 30
0.0
 11
40880.279999999999
 21
10192.059999999999
 31
0.0
  0
LINE
  5
175
  8
0
 10
40208.0
 20
5534.1199999999999
 30
0.0
 11
40880.279999999999
 21
5534.1199999999999
 31
0.0
  0
LINE
  5
176
  8
0
 10
40208.0
 20
19507.939999999999
 30
0.0
 11
40880.279999999999
 21
19507.939999999999
 31
0.0
  0
LINE
  5
177
  8
0
 10
40208.0
 20
24165.880000000001
 30
0.0
 11
40880.279999999999
 21
24165.880000000001
 31
0.0
  0
INSERT
  5
179
  8
0
  2
*U13
 10
0.0
 20
0.0
 30
0.0
  0
INSERT
  5
17D
  8
0
  2
*U14
 10
0.0
 20
0.0
 30
0.0
  0
INSERT
  5
17E
  8
0
  2
*U15
 10
0.0
 20
0.0
 30
0.0
  0
INSERT
  5
17F
  8
0
  2
*U16
 10
0.0
 20
0.0
 30
0.0
  0
INSERT
  5
180
  8
0
  2
*U17
 10
0.0
 20
0.0
 30
0.0
  0
INSERT
  5
181
  8
0
  2
*U18
 10
0.0
 20
0.0
 30
0.0
  0
INSERT
  5
182
  8
0
  2
*U19
 10
0.0
 20
0.0
 30
0.0
  0
INSERT
  5
183
  8
0
  2
*U20
 10
0.0
 20
0.0
 30
0.0
  0
INSERT
  5
184
  8
0
  2
*U21
 10
0.0
 20
0.0
 30
0.0
  0
INSERT
  5
185
  8
0
  2
*U22
 10
0.0
 20
0.0
 30
0.0
  0
INSERT
  5
186
  8
0
  2
*U23
 10
0.0
 20
0.0
 30
0.0
  0
INSERT
  5
187
  8
0
  2
*U24
 10
0.0
 20
0.0
 30
0.0
  0
INSERT
  5
188
  8
0
  2
*U25
 10
0.0
 20
0.0
 30
0.0
  0
INSERT
  5
189
  8
0
  2
*U26
 10
0.0
 20
0.0
 30
0.0
  0
INSERT
  5
18A
  8
0
  2
*U27
 10
0.0
 20
0.0
 30
0.0
  0
INSERT
  5
18B
  8
0
  2
*U28
 10
0.0
 20
0.0
 30
0.0
  0
INSERT
  5
18D
  8
0
  2
*U29
 10
0.0
 20
0.0
 30
0.0
  0
INSERT
  5
18E
  8
0
  2
*U30
 10
0.0
 20
0.0
 30
0.0
  0
INSERT
  5
18F
  8
0
  2
*U31
 10
0.0
 20
0.0
 30
0.0
  0
INSERT
  5
190
  8
0
  2
*U32
 10
0.0
 20
0.0
 30
0.0
  0
INSERT
  5
191
  8
0
  2
*U33
 10
0.0
 20
0.0
 30
0.0
  0
INSERT
  5
192
  8
0
  2
*U34
 10
0.0
 20
0.0
 30
0.0
  0
INSERT
  5
193
  8
0
  2
*U35
 10
0.0
 20
0.0
 30
0.0
  0
INSERT
  5
194
  8
0
  2
*U36
 10
0.0
 20
0.0
 30
0.0
  0
INSERT
  5
195
  8
0
  2
*U37
 10
0.0
 20
0.0
 30
0.0
  0
INSERT
  5
196
  8
0
  2
*U38
 10
0.0
 20
0.0
 30
0.0
  0
INSERT
  5
197
  8
0
  2
*U39
 10
0.0
 20
0.0
 30
0.0
  0
INSERT
  5
198
  8
0
  2
*U40
 10
0.0
 20
0.0
 30
0.0
  0
POLYLINE
  5
212
  8
0
  6
DASHED2
 62
     9
 66
     1
 10
0.0
 20
0.0
 30
0.0
 70
     1
  0
VERTEX
  5
418
  8
0
  6
DASHED2
 62
     9
 10
0.0
 20
0.0
 30
0.0
  0
VERTEX
  5
419
  8
0
  6
DASHED2
 62
     9
 10
42000.0
 20
0.0
 30
0.0
  0
VERTEX
  5
41A
  8
0
  6
DASHED2
 62
     9
 10
42000.0
 20
29700.0
 30
0.0
  0
VERTEX
  5
41B
  8
0
  6
DASHED2
 62
     9
 10
0.0
 20
29700.0
 30
0.0
  0
SEQEND
  5
41C
  8
0
  6
DASHED2
 62
     9
  0
ENDSEC
  0
EOF
