  0
SECTION
  2
HEADER
  9
$ACADVER
  1
AC1009
  9
$INSBASE
 10
0.0
 20
0.0
 30
0.0
  9
$EXTMIN
 10
999.99999999999977
 20
1000.0
 30
0.0
  9
$EXTMAX
 10
41000.0
 20
28700.0
 30
0.0
  9
$LIMMIN
 10
0.0
 20
0.0
  9
$LIMMAX
 10
42000.0
 20
29700.0
  9
$ORTHOMODE
 70
     0
  9
$REGENMODE
 70
     1
  9
$FILLMODE
 70
     1
  9
$QTEXTMODE
 70
     0
  9
$MIRRTEXT
 70
     0
  9
$DRAGMODE
 70
     2
  9
$LTSCALE
 40
100.0
  9
$OSMODE
 70
    37
  9
$ATTMODE
 70
     1
  9
$TEXTSIZE
 40
200.0
  9
$TRACEWID
 40
1.0
  9
$TEXTSTYLE
  7
A3_1-100_
  9
$CLAYER
  8
0
  9
$CELTYPE
  6
BYLAYER
  9
$CECOLOR
 62
   256
  9
$DIMSCALE
 40
100.0
  9
$DIMASZ
 40
2.5
  9
$DIMEXO
 40
5.0
  9
$DIMDLI
 40
3.75
  9
$DIMRND
 40
0.0
  9
$DIMDLE
 40
0.0
  9
$DIMEXE
 40
1.25
  9
$DIMTP
 40
0.0
  9
$DIMTM
 40
0.0
  9
$DIMTXT
 40
200.0
  9
$DIMCEN
 40
2.5
  9
$DIMTSZ
 40
0.0
  9
$DIMTOL
 70
     0
  9
$DIMLIM
 70
     0
  9
$DIMTIH
 70
     0
  9
$DIMTOH
 70
     0
  9
$DIMSE1
 70
     0
  9
$DIMSE2
 70
     0
  9
$DIMTAD
 70
     1
  9
$DIMZIN
 70
     8
  9
$DIMBLK
  1
DOTSMALL
  9
$DIMASO
 70
     1
  9
$DIMSHO
 70
     1
  9
$DIMPOST
  1

  9
$DIMAPOST
  1

  9
$DIMALT
 70
     0
  9
$DIMALTD
 70
     3
  9
$DIMALTF
 40
0.03937007874016
  9
$DIMLFAC
 40
1.0
  9
$DIMTOFL
 70
     1
  9
$DIMTVP
 40
0.0
  9
$DIMTIX
 70
     0
  9
$DIMSOXD
 70
     0
  9
$DIMSAH
 70
     0
  9
$DIMBLK1
  1

  9
$DIMBLK2
  1

  9
$DIMSTYLE
  2
A3-100
  9
$DIMCLRD
 70
     0
  9
$DIMCLRE
 70
     0
  9
$DIMCLRT
 70
     0
  9
$DIMTFAC
 40
1.0
  9
$DIMGAP
 40
0.625
  9
$LUNITS
 70
     2
  9
$LUPREC
 70
     0
  9
$SKETCHINC
 40
1.0
  9
$FILLETRAD
 40
0.0
  9
$AUNITS
 70
     0
  9
$AUPREC
 70
     0
  9
$MENU
  1
.
  9
$ELEVATION
 40
0.0
  9
$PELEVATION
 40
0.0
  9
$THICKNESS
 40
0.0
  9
$LIMCHECK
 70
     0
  9
$BLIPMODE
 70
     0
  9
$CHAMFERA
 40
0.0
  9
$CHAMFERB
 40
0.0
  9
$SKPOLY
 70
     0
  9
$TDCREATE
 40
2454992.5567386341
  9
$TDUPDATE
 40
2456866.3741778359
  9
$TDINDWG
 40
0.0308885069
  9
$TDUSRTIMER
 40
0.030887963
  9
$USRTIMER
 70
     1
  9
$ANGBASE
 50
90.0
  9
$ANGDIR
 70
     1
  9
$PDMODE
 70
     0
  9
$PDSIZE
 40
0.0
  9
$PLINEWID
 40
0.0
  9
$COORDS
 70
     1
  9
$SPLFRAME
 70
     0
  9
$SPLINETYPE
 70
     6
  9
$SPLINESEGS
 70
     8
  9
$ATTDIA
 70
     0
  9
$ATTREQ
 70
     1
  9
$HANDLING
 70
     1
  9
$HANDSEED
  5
349
  9
$SURFTAB1
 70
     6
  9
$SURFTAB2
 70
     6
  9
$SURFTYPE
 70
     6
  9
$SURFU
 70
     6
  9
$SURFV
 70
     6
  9
$UCSNAME
  2

  9
$UCSORG
 10
0.0
 20
0.0
 30
0.0
  9
$UCSXDIR
 10
1.0
 20
0.0
 30
0.0
  9
$UCSYDIR
 10
0.0
 20
1.0
 30
0.0
  9
$PUCSNAME
  2

  9
$PUCSORG
 10
0.0
 20
0.0
 30
0.0
  9
$PUCSXDIR
 10
1.0
 20
0.0
 30
0.0
  9
$PUCSYDIR
 10
0.0
 20
1.0
 30
0.0
  9
$USERI1
 70
     0
  9
$USERI2
 70
     0
  9
$USERI3
 70
     0
  9
$USERI4
 70
     0
  9
$USERI5
 70
     0
  9
$USERR1
 40
0.0
  9
$USERR2
 40
0.0
  9
$USERR3
 40
0.0
  9
$USERR4
 40
0.0
  9
$USERR5
 40
0.0
  9
$WORLDVIEW
 70
     1
  9
$SHADEDGE
 70
     3
  9
$SHADEDIF
 70
    70
  9
$TILEMODE
 70
     1
  9
$MAXACTVP
 70
    64
  9
$PLIMCHECK
 70
     0
  9
$PEXTMIN
 10
1.0000000000000000E+020
 20
1.0000000000000000E+020
 30
1.0000000000000000E+020
  9
$PEXTMAX
 10
-1.0000000000000000E+020
 20
-1.0000000000000000E+020
 30
-1.0000000000000000E+020
  9
$PLIMMIN
 10
0.0
 20
0.0
  9
$PLIMMAX
 10
420.0
 20
297.0
  9
$UNITMODE
 70
     0
  9
$VISRETAIN
 70
     1
  9
$PLINEGEN
 70
     0
  9
$PSLTSCALE
 70
     1
  0
ENDSEC
  0
SECTION
  2
TABLES
  0
TABLE
  2
VPORT
 70
     1
  0
VPORT
  2
*ACTIVE
 70
     0
 10
0.0
 20
0.0
 11
1.0
 21
1.0
 12
24220.832206947201
 22
14567.193971686969
 13
0.0
 23
0.0
 14
10.0
 24
10.0
 15
10.0
 25
10.0
 16
0.0
 26
0.0
 36
1.0
 17
0.0
 27
0.0
 37
0.0
 40
28974.055045507808
 41
2.4849397590361431
 42
50.0
 43
0.0
 44
0.0
 50
0.0
 51
0.0
 71
     0
 72
  1000
 73
     1
 74
     3
 75
     0
 76
     1
 77
     0
 78
     0
  0
ENDTAB
  0
TABLE
  2
LTYPE
 70
     4
  0
LTYPE
  2
CONTINUOUS
 70
     0
  3
Solid line
 72
    65
 73
     0
 40
0.0
  0
LTYPE
  2
HIDDEN2
 70
     0
  3
Hidden (.5x) _ _ _ _ _ _ _ _ _ _ _ _ _ _ _ _ _
 72
    65
 73
     2
 40
4.7624999999999993
 49
3.1749999999999989
 49
-1.587499999999999
  0
ENDTAB
  0
TABLE
  2
LAYER
 70
     2
  0
LAYER
  2
0
 70
     0
 62
     7
  6
CONTINUOUS
  0
LAYER
  2
DEFPOINTS
 70
     0
 62
     7
  6
CONTINUOUS
  0
ENDTAB
  0
TABLE
  2
STYLE
 70
     3
  0
STYLE
  2
STANDARD
 70
     0
 40
200.0
 41
1.0
 50
0.0
 71
     0
 42
200.0
  3
txt.shx
  4

  0
STYLE
  2
A3_1-100_
 70
     0
 40
200.0
 41
1.0
 50
0.0
 71
     0
 42
200.0
  3
txt
  4

  0
STYLE
  2

 70
     1
 40
0.0
 41
1.0
 50
0.0
 71
     0
 42
200.0
  3
ltypeshp.shx
  4

  0
ENDTAB
  0
TABLE
  2
VIEW
 70
     2
  0
ENDTAB
  0
TABLE
  2
UCS
 70
     0
  0
ENDTAB
  0
TABLE
  2
APPID
 70
     8
  0
APPID
  2
ACAD
 70
     0
  0
APPID
  2
ACADANNOPO
 70
     0
  0
APPID
  2
ACAD_DSTYLE_DIMJAG
 70
     0
  0
APPID
  2
ACAD_DSTYLE_DIMTALN
 70
     0
  0
APPID
  2
ACAD_EXEMPT_FROM_CAD_STANDARDS
 70
     0
  0
APPID
  2
ACAD_NAV_VCDISPLAY
 70
     0
  0
APPID
  2
ACAD_PSEXT
 70
     0
  0
APPID
  2
ACAD_MLEADERVER
 70
     0
  0
ENDTAB
  0
TABLE
  2
DIMSTYLE
 70
     3
  0
DIMSTYLE
  2
ISO-25
 70
     0
  3

  4

  5

  6

  7

 40
1.0
 41
2.5
 42
0.625
 43
3.75
 44
1.25
 45
0.0
 46
0.0
 47
0.0
 48
0.0
140
2.5
141
2.5
142
0.0
143
0.03937007874016
144
1.0
145
0.0
146
1.0
147
0.625
 71
     0
 72
     0
 73
     0
 74
     0
 75
     0
 76
     0
 77
     1
 78
     8
170
     0
171
     3
172
     1
173
     0
174
     0
175
     0
176
     0
177
     0
178
     0
  0
DIMSTYLE
  2
A3-100
 70
     0
  3

  4

  5
DOTSMALL
  6

  7

 40
100.0
 41
2.5
 42
5.0
 43
3.75
 44
1.25
 45
0.0
 46
0.0
 47
0.0
 48
0.0
140
200.0
141
2.5
142
0.0
143
0.03937007874016
144
1.0
145
0.0
146
1.0
147
0.625
 71
     0
 72
     0
 73
     0
 74
     0
 75
     0
 76
     0
 77
     1
 78
     8
170
     0
171
     3
172
     1
173
     0
174
     0
175
     0
176
     0
177
     0
178
     0
  0
ENDTAB
  0
ENDSEC
  0
SECTION
  2
BLOCKS
  0
BLOCK
  8
0
  2
$MODEL_SPACE
 70
     0
 10
0.0
 20
0.0
 30
0.0
  3
$MODEL_SPACE
  1

  0
ENDBLK
  5
23
  8
0
  0
BLOCK
 67
     1
  8
0
  2
$PAPER_SPACE
 70
     0
 10
0.0
 20
0.0
 30
0.0
  3
$PAPER_SPACE
  1

  0
ENDBLK
  5
1F
 67
     1
  8
0
  0
BLOCK
  8
0
  2
_DOTSMALL
 70
     0
 10
0.0
 20
0.0
 30
0.0
  3
_DOTSMALL
  1

  0
POLYLINE
  5
60
  8
0
  6
BYBLOCK
 62
     0
 66
     1
 10
0.0
 20
0.0
 30
0.0
 70
     1
 40
0.5
 41
0.5
  0
VERTEX
  5
27E
  8
0
  6
BYBLOCK
 62
     0
 10
-0.0625
 20
0.0
 30
0.0
 42
1.0
  0
VERTEX
  5
27F
  8
0
  6
BYBLOCK
 62
     0
 10
0.0625
 20
0.0
 30
0.0
 42
1.0
  0
SEQEND
  5
280
  8
0
  6
BYBLOCK
 62
     0
  0
ENDBLK
  5
62
  8
0
  0
BLOCK
  8
0
  2
_CLOSED
 70
     0
 10
0.0
 20
0.0
 30
0.0
  3
_CLOSED
  1

  0
LINE
  5
E1
  8
0
  6
BYBLOCK
 62
     0
 10
-1.0
 20
0.1666666666666666
 30
0.0
 11
0.0
 21
0.0
 31
0.0
  0
LINE
  5
E2
  8
0
  6
BYBLOCK
 62
     0
 10
0.0
 20
0.0
 30
0.0
 11
-1.0
 21
-0.1666666666666666
 31
0.0
  0
LINE
  5
E3
  8
0
  6
BYBLOCK
 62
     0
 10
-1.0
 20
0.1666666666666666
 30
0.0
 11
-1.0
 21
-0.1666666666666666
 31
0.0
  0
LINE
  5
E4
  8
0
  6
BYBLOCK
 62
     0
 10
0.0
 20
0.0
 30
0.0
 11
-1.0
 21
0.0
 31
0.0
  0
ENDBLK
  5
E6
  8
0
  0
BLOCK
  8
0
  2
_DOT
 70
     0
 10
0.0
 20
0.0
 30
0.0
  3
_DOT
  1

  0
POLYLINE
  5
E8
  8
0
  6
BYBLOCK
 62
     0
 66
     1
 10
0.0
 20
0.0
 30
0.0
 70
     1
 40
0.5
 41
0.5
  0
VERTEX
  5
2AC
  8
0
  6
BYBLOCK
 62
     0
 10
-0.25
 20
0.0
 30
0.0
 42
1.0
  0
VERTEX
  5
2AD
  8
0
  6
BYBLOCK
 62
     0
 10
0.25
 20
0.0
 30
0.0
 42
1.0
  0
SEQEND
  5
2AE
  8
0
  6
BYBLOCK
 62
     0
  0
LINE
  5
E9
  8
0
  6
BYBLOCK
 62
     0
 10
-0.5
 20
0.0
 30
0.0
 11
-1.0
 21
0.0
 31
0.0
  0
ENDBLK
  5
EB
  8
0
  0
BLOCK
  8
0
  2
*D5
 70
     1
 10
0.0
 20
0.0
 30
0.0
  3
*D5
  1

  0
LINE
  5
1ED
  8
0
 62
     0
 10
8754.8206125138677
 20
22229.233661599981
 30
0.0
 11
8754.8206125138677
 21
23326.415041416069
 31
0.0
  0
LINE
  5
1EE
  8
0
 62
     0
 10
14313.955001861959
 20
22229.233661599981
 30
0.0
 11
14313.955001861959
 21
23326.415041416069
 31
0.0
  0
LINE
  5
1EF
  8
0
 62
     0
 10
8754.8206125138677
 20
23201.415041416069
 30
0.0
 11
14313.955001861959
 21
23201.415041416069
 31
0.0
  0
INSERT
  5
1F0
  8
0
 62
     0
  2
_DOTSMALL
 10
8754.8206125138677
 20
23201.415041416069
 30
0.0
 41
250.0
 42
250.0
 43
250.0
 50
180.0
  0
INSERT
  5
1F1
  8
0
 62
     0
  2
_DOTSMALL
 10
14313.955001861959
 20
23201.415041416069
 30
0.0
 41
250.0
 42
250.0
 43
250.0
  0
INSERT
  5
1F2
  8
0
  2
*U34
 10
0.0
 20
0.0
 30
0.0
  0
POINT
  5
1F3
  8
DEFPOINTS
 62
     0
 10
8754.8206125138677
 20
21729.233661599981
 30
0.0
  0
POINT
  5
1F4
  8
DEFPOINTS
 62
     0
 10
14313.955001861959
 20
21729.233661599981
 30
0.0
  0
POINT
  5
1F5
  8
DEFPOINTS
 62
     0
 10
14313.955001861959
 20
23201.415041416069
 30
0.0
  0
ENDBLK
  5
1E2
  8
0
  0
BLOCK
  8
0
  2
*D6
 70
     1
 10
0.0
 20
0.0
 30
0.0
  3
*D6
  1

  0
LINE
  5
205
  8
0
 62
     0
 10
8254.8206125138677
 20
11423.9639223309
 30
0.0
 11
6833.8186391128966
 21
11423.9639223309
 31
0.0
  0
LINE
  5
206
  8
0
 62
     0
 10
8254.8206125138677
 20
21729.233661599981
 30
0.0
 11
6833.8186391128984
 21
21729.233661599988
 31
0.0
  0
LINE
  5
207
  8
0
 62
     0
 10
6958.8186391128966
 20
11423.9639223309
 30
0.0
 11
6958.8186391128984
 21
21729.233661599988
 31
0.0
  0
INSERT
  5
208
  8
0
 62
     0
  2
_DOTSMALL
 10
6958.8186391128966
 20
11423.9639223309
 30
0.0
 41
250.0
 42
250.0
 43
250.0
 50
270.0
  0
INSERT
  5
209
  8
0
 62
     0
  2
_DOTSMALL
 10
6958.8186391128984
 20
21729.233661599988
 30
0.0
 41
250.0
 42
250.0
 43
250.0
 50
90.0
  0
INSERT
  5
20A
  8
0
  2
*U35
 10
0.0
 20
0.0
 30
0.0
  0
POINT
  5
20B
  8
DEFPOINTS
 62
     0
 10
8754.8206125138677
 20
11423.9639223309
 30
0.0
  0
POINT
  5
20C
  8
DEFPOINTS
 62
     0
 10
8754.8206125138677
 20
21729.233661599981
 30
0.0
  0
POINT
  5
20D
  8
DEFPOINTS
 62
     0
 10
6958.8186391128984
 20
21729.233661599988
 30
0.0
  0
ENDBLK
  5
1FA
  8
0
  0
BLOCK
  8
0
  2
*U7
 70
     1
 10
0.0
 20
0.0
 30
0.0
  3
*U7
  1

  0
TEXT
  5
2C1
  8
0
 10
38011.520930562379
 20
1310.45464783482
 30
0.0
 40
400.0
  1
1
  7
A3_1-100_
  0
ENDBLK
  5
2C3
  8
0
  0
BLOCK
  8
0
  2
*U8
 70
     1
 10
0.0
 20
0.0
 30
0.0
  3
*U8
  1

  0
TEXT
  5
2C5
  8
0
 10
31043.33911238057
 20
1310.45464783482
 30
0.0
 40
400.0
  1
2
  7
A3_1-100_
  0
ENDBLK
  5
2C7
  8
0
  0
BLOCK
  8
0
  2
*U9
 70
     1
 10
0.0
 20
0.0
 30
0.0
  3
*U9
  1

  0
TEXT
  5
2C9
  8
0
 10
24043.33911238056
 20
1310.45464783482
 30
0.0
 40
400.0
  1
3
  7
A3_1-100_
  0
ENDBLK
  5
2CB
  8
0
  0
BLOCK
  8
0
  2
*U10
 70
     1
 10
0.0
 20
0.0
 30
0.0
  3
*U10
  1

  0
TEXT
  5
2CD
  8
0
 10
17052.430021471471
 20
1310.45464783482
 30
0.0
 40
400.0
  1
4
  7
A3_1-100_
  0
ENDBLK
  5
2CF
  8
0
  0
BLOCK
  8
0
  2
*U11
 70
     1
 10
0.0
 20
0.0
 30
0.0
  3
*U11
  1

  0
TEXT
  5
2D1
  8
0
 10
10043.33911238056
 20
1310.45464783482
 30
0.0
 40
400.0
  1
5
  7
A3_1-100_
  0
ENDBLK
  5
2D3
  8
0
  0
BLOCK
  8
0
  2
*U12
 70
     1
 10
0.0
 20
0.0
 30
0.0
  3
*U12
  1

  0
TEXT
  5
2D5
  8
0
 10
4041.0663851078439
 20
1310.45464783482
 30
0.0
 40
400.0
  1
6
  7
A3_1-100_
  0
ENDBLK
  5
2D7
  8
0
  0
BLOCK
  8
0
  2
*U13
 70
     1
 10
0.0
 20
0.0
 30
0.0
  3
*U13
  1

  0
TEXT
  5
2D9
  8
0
 10
38011.520930562379
 20
28010.45464783482
 30
0.0
 40
400.0
  1
1
  7
A3_1-100_
  0
ENDBLK
  5
2DB
  8
0
  0
BLOCK
  8
0
  2
*U14
 70
     1
 10
0.0
 20
0.0
 30
0.0
  3
*U14
  1

  0
TEXT
  5
2DD
  8
0
 10
31043.33911238057
 20
28010.45464783482
 30
0.0
 40
400.0
  1
2
  7
A3_1-100_
  0
ENDBLK
  5
2DF
  8
0
  0
BLOCK
  8
0
  2
*U15
 70
     1
 10
0.0
 20
0.0
 30
0.0
  3
*U15
  1

  0
TEXT
  5
2E1
  8
0
 10
24043.33911238056
 20
28010.45464783482
 30
0.0
 40
400.0
  1
3
  7
A3_1-100_
  0
ENDBLK
  5
2E3
  8
0
  0
BLOCK
  8
0
  2
*U16
 70
     1
 10
0.0
 20
0.0
 30
0.0
  3
*U16
  1

  0
TEXT
  5
2E5
  8
0
 10
17052.430021471471
 20
28010.45464783482
 30
0.0
 40
400.0
  1
4
  7
A3_1-100_
  0
ENDBLK
  5
2E7
  8
0
  0
BLOCK
  8
0
  2
*U17
 70
     1
 10
0.0
 20
0.0
 30
0.0
  3
*U17
  1

  0
TEXT
  5
2E9
  8
0
 10
10043.33911238056
 20
28010.45464783482
 30
0.0
 40
400.0
  1
5
  7
A3_1-100_
  0
ENDBLK
  5
2EB
  8
0
  0
BLOCK
  8
0
  2
*U18
 70
     1
 10
0.0
 20
0.0
 30
0.0
  3
*U18
  1

  0
TEXT
  5
2ED
  8
0
 10
4041.0663851078439
 20
28010.45464783482
 30
0.0
 40
400.0
  1
6
  7
A3_1-100_
  0
ENDBLK
  5
2EF
  8
0
  0
BLOCK
  8
0
  2
*U19
 70
     1
 10
0.0
 20
0.0
 30
0.0
  3
*U19
  1

  0
TEXT
  5
2F1
  8
0
 10
1303.262332755166
 20
25254.361864196471
 30
0.0
 40
400.0
  1
D
  7
A3_1-100_
  0
ENDBLK
  5
2F3
  8
0
  0
BLOCK
  8
0
  2
*U20
 70
     1
 10
0.0
 20
0.0
 30
0.0
  3
*U20
  1

  0
TEXT
  5
2F5
  8
0
 10
1310.080514573348
 20
18254.361864196471
 30
0.0
 40
400.0
  1
C
  7
A3_1-100_
  0
ENDBLK
  5
2F7
  8
0
  0
BLOCK
  8
0
  2
*U21
 70
     1
 10
0.0
 20
0.0
 30
0.0
  3
*U21
  1

  0
TEXT
  5
2F9
  8
0
 10
1303.262332755166
 20
11254.361864196469
 30
0.0
 40
400.0
  1
B
  7
A3_1-100_
  0
ENDBLK
  5
2FB
  8
0
  0
BLOCK
  8
0
  2
*U22
 70
     1
 10
0.0
 20
0.0
 30
0.0
  3
*U22
  1

  0
TEXT
  5
2FD
  8
0
 10
1335.080514573345
 20
4404.3618641964713
 30
0.0
 40
400.0
  1
A
  7
A3_1-100_
  0
ENDBLK
  5
2FF
  8
0
  0
BLOCK
  8
0
  2
*U23
 70
     1
 10
0.0
 20
0.0
 30
0.0
  3
*U23
  1

  0
TEXT
  5
301
  8
0
 10
40438.215070854902
 20
25254.361864196471
 30
0.0
 40
400.0
  1
D
  7
A3_1-100_
  0
ENDBLK
  5
303
  8
0
  0
BLOCK
  8
0
  2
*U24
 70
     1
 10
0.0
 20
0.0
 30
0.0
  3
*U24
  1

  0
TEXT
  5
305
  8
0
 10
40445.033252673071
 20
18254.361864196471
 30
0.0
 40
400.0
  1
C
  7
A3_1-100_
  0
ENDBLK
  5
307
  8
0
  0
BLOCK
  8
0
  2
*U25
 70
     1
 10
0.0
 20
0.0
 30
0.0
  3
*U25
  1

  0
TEXT
  5
309
  8
0
 10
40438.215070854902
 20
11254.361864196469
 30
0.0
 40
400.0
  1
B
  7
A3_1-100_
  0
ENDBLK
  5
30B
  8
0
  0
BLOCK
  8
0
  2
*U26
 70
     1
 10
0.0
 20
0.0
 30
0.0
  3
*U26
  1

  0
TEXT
  5
30D
  8
0
 10
40470.033252673071
 20
4404.3618641964713
 30
0.0
 40
400.0
  1
A
  7
A3_1-100_
  0
ENDBLK
  5
30F
  8
0
  0
BLOCK
  8
0
  2
*U27
 70
     1
 10
0.0
 20
0.0
 30
0.0
  3
*U27
  1

  0
TEXT
  5
326
  8
0
 10
30179.162862661411
 20
5020.7280308259215
 30
0.0
 40
250.0
  1
TITLE
  7
A3_1-100_
  0
ENDBLK
  5
328
  8
0
  0
BLOCK
  8
0
  2
*U28
 70
     1
 10
0.0
 20
0.0
 30
0.0
  3
*U28
  1

  0
TEXT
  5
32A
  8
0
 10
30167.799226297771
 20
3620.728030825921
 30
0.0
 40
250.0
  1
SIZE
  7
A3_1-100_
  0
ENDBLK
  5
32C
  8
0
  0
BLOCK
  8
0
  2
*U29
 70
     1
 10
0.0
 20
0.0
 30
0.0
  3
*U29
  1

  0
TEXT
  5
32E
  8
0
 10
32669.21968084322
 20
3620.728030825921
 30
0.0
 40
250.0
  1
CODE
  7
A3_1-100_
  0
ENDBLK
  5
330
  8
0
  0
BLOCK
  8
0
  2
*U30
 70
     1
 10
0.0
 20
0.0
 30
0.0
  3
*U30
  1

  0
TEXT
  5
332
  8
0
 10
35169.219680843227
 20
3620.728030825921
 30
0.0
 40
250.0
  1
CODE
  7
A3_1-100_
  0
ENDBLK
  5
334
  8
0
  0
BLOCK
  8
0
  2
*U31
 70
     1
 10
0.0
 20
0.0
 30
0.0
  3
*U31
  1

  0
TEXT
  5
336
  8
0
 10
37659.276499025051
 20
3620.728030825921
 30
0.0
 40
250.0
  1
REV
  7
A3_1-100_
  0
ENDBLK
  5
338
  8
0
  0
BLOCK
  8
0
  2
*U32
 70
     1
 10
0.0
 20
0.0
 30
0.0
  3
*U32
  1

  0
TEXT
  5
33A
  8
0
 10
30167.799226297771
 20
2420.7280308259219
 30
0.0
 40
250.0
  1
SCALE
  7
A3_1-100_
  0
ENDBLK
  5
33C
  8
0
  0
BLOCK
  8
0
  2
*U33
 70
     1
 10
0.0
 20
0.0
 30
0.0
  3
*U33
  1

  0
TEXT
  5
33E
  8
0
 10
35167.799226297771
 20
2420.7280308259219
 30
0.0
 40
250.0
  1
SHEET
  7
A3_1-100_
  0
ENDBLK
  5
340
  8
0
  0
BLOCK
  8
0
  2
*U34
 70
     1
 10
0.0
 20
0.0
 30
0.0
  3
*U34
  1

  0
TEXT
  5
342
  8
0
 62
     0
 10
11244.046898097
 20
23263.915041416069
 30
0.0
 40
200.0
  1
5559
  7
A3_1-100_
  0
ENDBLK
  5
344
  8
0
  0
BLOCK
  8
0
  2
*U35
 70
     1
 10
0.0
 20
0.0
 30
0.0
  3
*U35
  1

  0
TEXT
  5
346
  8
0
 62
     0
 10
6896.3186391128938
 20
16205.00788287453
 30
0.0
 40
200.0
  1
10305
 50
90.0
  7
A3_1-100_
  0
ENDBLK
  5
348
  8
0
  0
ENDSEC
  0
SECTION
  2
ENTITIES
  0
POLYLINE
  5
2E
  8
0
 66
     1
 10
0.0
 20
0.0
 30
0.0
 70
     1
  0
VERTEX
  5
279
  8
0
 10
999.99999999999977
 20
1000.0
 30
0.0
  0
VERTEX
  5
27A
  8
0
 10
41000.0
 20
1000.0
 30
0.0
  0
VERTEX
  5
27B
  8
0
 10
41000.0
 20
28700.0
 30
0.0
  0
VERTEX
  5
27C
  8
0
 10
1000.0
 20
28700.0
 30
0.0
  0
SEQEND
  5
27D
  8
0
  0
LINE
  5
184
  8
0
 10
21000.0
 20
27700.0
 30
0.0
 11
21000.0
 21
28700.0
 31
0.0
  0
LINE
  5
185
  8
0
 10
14000.0
 20
27700.0
 30
0.0
 11
14000.0
 21
28700.0
 31
0.0
  0
LINE
  5
188
  8
0
 10
7000.0
 20
27700.0
 30
0.0
 11
7000.0
 21
28700.0
 31
0.0
  0
LINE
  5
189
  8
0
 10
28000.0
 20
27700.0
 30
0.0
 11
28000.0
 21
28700.0
 31
0.0
  0
LINE
  5
18A
  8
0
 10
35000.0
 20
27700.0
 30
0.0
 11
35000.0
 21
28700.0
 31
0.0
  0
LINE
  5
18B
  8
0
 10
20999.999999999989
 20
1000.0
 30
0.0
 11
20999.999999999989
 21
2000.0
 31
0.0
  0
LINE
  5
18C
  8
0
 10
27999.999999999989
 20
1000.0
 30
0.0
 11
27999.999999999989
 21
2000.0
 31
0.0
  0
LINE
  5
18D
  8
0
 10
35000.0
 20
1000.0
 30
0.0
 11
35000.0
 21
2000.0
 31
0.0
  0
LINE
  5
18E
  8
0
 10
13999.999999999991
 20
1000.0
 30
0.0
 11
13999.999999999991
 21
2000.0
 31
0.0
  0
LINE
  5
18F
  8
0
 10
6999.9999999999918
 20
1000.0
 30
0.0
 11
6999.9999999999918
 21
2000.0
 31
0.0
  0
LINE
  5
190
  8
0
 10
2000.0
 20
14850.0
 30
0.0
 11
1000.0
 21
14850.0
 31
0.0
  0
LINE
  5
191
  8
0
 10
2000.0
 20
7850.0000000000009
 30
0.0
 11
1000.0
 21
7850.0000000000009
 31
0.0
  0
LINE
  5
192
  8
0
 10
2000.0
 20
21850.0
 30
0.0
 11
1000.0
 21
21850.0
 31
0.0
  0
LINE
  5
193
  8
0
 10
41000.0
 20
14850.0
 30
0.0
 11
40000.0
 21
14850.0
 31
0.0
  0
LINE
  5
194
  8
0
 10
41000.0
 20
21850.0
 30
0.0
 11
40000.0
 21
21850.0
 31
0.0
  0
LINE
  5
195
  8
0
 10
41000.0
 20
7850.0000000000009
 30
0.0
 11
40000.0
 21
7850.0000000000009
 31
0.0
  0
INSERT
  5
198
  8
0
  2
*U7
 10
0.0
 20
0.0
 30
0.0
  0
INSERT
  5
199
  8
0
  2
*U8
 10
0.0
 20
0.0
 30
0.0
  0
INSERT
  5
19A
  8
0
  2
*U9
 10
0.0
 20
0.0
 30
0.0
  0
INSERT
  5
19B
  8
0
  2
*U10
 10
0.0
 20
0.0
 30
0.0
  0
INSERT
  5
19C
  8
0
  2
*U11
 10
0.0
 20
0.0
 30
0.0
  0
INSERT
  5
19D
  8
0
  2
*U12
 10
0.0
 20
0.0
 30
0.0
  0
INSERT
  5
19E
  8
0
  2
*U13
 10
0.0
 20
0.0
 30
0.0
  0
INSERT
  5
19F
  8
0
  2
*U14
 10
0.0
 20
0.0
 30
0.0
  0
INSERT
  5
1A0
  8
0
  2
*U15
 10
0.0
 20
0.0
 30
0.0
  0
INSERT
  5
1A1
  8
0
  2
*U16
 10
0.0
 20
0.0
 30
0.0
  0
INSERT
  5
1A2
  8
0
  2
*U17
 10
0.0
 20
0.0
 30
0.0
  0
INSERT
  5
1A3
  8
0
  2
*U18
 10
0.0
 20
0.0
 30
0.0
  0
INSERT
  5
1A4
  8
0
  2
*U19
 10
0.0
 20
0.0
 30
0.0
  0
INSERT
  5
1A5
  8
0
  2
*U20
 10
0.0
 20
0.0
 30
0.0
  0
INSERT
  5
1A6
  8
0
  2
*U21
 10
0.0
 20
0.0
 30
0.0
  0
INSERT
  5
1A7
  8
0
  2
*U22
 10
0.0
 20
0.0
 30
0.0
  0
INSERT
  5
1A8
  8
0
  2
*U23
 10
0.0
 20
0.0
 30
0.0
  0
INSERT
  5
1A9
  8
0
  2
*U24
 10
0.0
 20
0.0
 30
0.0
  0
INSERT
  5
1AA
  8
0
  2
*U25
 10
0.0
 20
0.0
 30
0.0
  0
INSERT
  5
1AB
  8
0
  2
*U26
 10
0.0
 20
0.0
 30
0.0
  0
POLYLINE
  5
1AC
  8
0
 66
     1
 10
0.0
 20
0.0
 30
0.0
 70
     1
  0
VERTEX
  5
310
  8
0
 10
2000.0
 20
2000.0
 30
0.0
  0
VERTEX
  5
311
  8
0
 10
40000.0
 20
2000.0
 30
0.0
  0
VERTEX
  5
312
  8
0
 10
40000.0
 20
27700.0
 30
0.0
  0
VERTEX
  5
313
  8
0
 10
2000.0
 20
27700.0
 30
0.0
  0
SEQEND
  5
314
  8
0
  0
POLYLINE
  5
1B5
  8
0
 66
     1
 10
0.0
 20
0.0
 30
0.0
 70
     1
  0
VERTEX
  5
315
  8
0
 10
21000.0
 20
27700.0
 30
0.0
  0
VERTEX
  5
316
  8
0
 10
21300.0
 20
28200.0
 30
0.0
  0
VERTEX
  5
317
  8
0
 10
20700.0
 20
28200.0
 30
0.0
  0
SEQEND
  5
318
  8
0
  0
POLYLINE
  5
1B6
  8
0
 66
     1
 10
0.0
 20
0.0
 30
0.0
 70
     1
  0
VERTEX
  5
319
  8
0
 10
40000.0
 20
14850.0
 30
0.0
  0
VERTEX
  5
31A
  8
0
 10
40500.0
 20
14550.0
 30
0.0
  0
VERTEX
  5
31B
  8
0
 10
40500.0
 20
15150.0
 30
0.0
  0
SEQEND
  5
31C
  8
0
  0
POLYLINE
  5
1B7
  8
0
 66
     1
 10
0.0
 20
0.0
 30
0.0
 70
     1
  0
VERTEX
  5
31D
  8
0
 10
21000.0
 20
2000.0
 30
0.0
  0
VERTEX
  5
31E
  8
0
 10
20700.0
 20
1500.0
 30
0.0
  0
VERTEX
  5
31F
  8
0
 10
21300.0
 20
1500.0
 30
0.0
  0
SEQEND
  5
320
  8
0
  0
POLYLINE
  5
1B8
  8
0
 66
     1
 10
0.0
 20
0.0
 30
0.0
 70
     1
  0
VERTEX
  5
321
  8
0
 10
2000.0
 20
14850.0
 30
0.0
  0
VERTEX
  5
322
  8
0
 10
1500.0
 20
15150.0
 30
0.0
  0
VERTEX
  5
323
  8
0
 10
1500.0
 20
14550.0
 30
0.0
  0
SEQEND
  5
324
  8
0
  0
LINE
  5
1C0
  8
0
 10
30000.0
 20
2800.0
 30
0.0
 11
40000.0
 21
2800.0
 31
0.0
  0
LINE
  5
1C3
  8
0
 10
40000.0
 20
2000.0
 30
0.0
 11
30000.0
 21
2000.0000000000009
 31
0.0
  0
LINE
  5
1C4
  8
0
 10
30000.0
 20
2000.0000000000009
 30
0.0
 11
30000.0
 21
6500.0
 31
0.0
  0
LINE
  5
1C5
  8
0
 10
24000.0
 20
2000.0000000000009
 30
0.0
 11
24000.0
 21
6500.0
 31
0.0
  0
LINE
  5
1C6
  8
0
 10
30000.0
 20
4000.0
 30
0.0
 11
40000.0
 21
4000.0
 31
0.0
  0
LINE
  5
1C7
  8
0
 10
30000.0
 20
5400.0
 30
0.0
 11
40000.0
 21
5400.0
 31
0.0
  0
LINE
  5
1C8
  8
0
 10
24000.0
 20
6500.0
 30
0.0
 11
40000.0
 21
6500.0
 31
0.0
  0
LINE
  5
1C9
  8
0
  6
HIDDEN2
 10
30000.0
 20
2800.0
 30
0.0
 11
24000.0
 21
2800.0000000000009
 31
0.0
  0
LINE
  5
1CE
  8
0
  6
HIDDEN2
 10
30000.0
 20
3600.0
 30
0.0
 11
24000.0
 21
3600.0000000000009
 31
0.0
  0
INSERT
  5
1CF
  8
0
  2
*U27
 10
0.0
 20
0.0
 30
0.0
  0
INSERT
  5
1D0
  8
0
  2
*U28
 10
0.0
 20
0.0
 30
0.0
  0
LINE
  5
1D2
  8
0
 10
32500.0
 20
4000.0
 30
0.0
 11
32500.0
 21
2800.0
 31
0.0
  0
INSERT
  5
1D3
  8
0
  2
*U29
 10
0.0
 20
0.0
 30
0.0
  0
LINE
  5
1D4
  8
0
 10
32500.0
 20
4000.0
 30
0.0
 11
35000.0
 21
4000.0
 31
0.0
  0
LINE
  5
1D5
  8
0
 10
35000.0
 20
4000.0
 30
0.0
 11
35000.0
 21
2800.0
 31
0.0
  0
INSERT
  5
1D6
  8
0
  2
*U30
 10
0.0
 20
0.0
 30
0.0
  0
LINE
  5
1D7
  8
0
 10
35000.0
 20
4000.0
 30
0.0
 11
37500.0
 21
4000.0
 31
0.0
  0
LINE
  5
1D8
  8
0
 10
37500.0
 20
4000.0
 30
0.0
 11
37500.0
 21
2800.0
 31
0.0
  0
INSERT
  5
1D9
  8
0
  2
*U31
 10
0.0
 20
0.0
 30
0.0
  0
LINE
  5
1DA
  8
0
 10
35000.0
 20
2800.0
 30
0.0
 11
35000.0
 21
2000.0
 31
0.0
  0
INSERT
  5
1DB
  8
0
  2
*U32
 10
0.0
 20
0.0
 30
0.0
  0
INSERT
  5
1DC
  8
0
  2
*U33
 10
0.0
 20
0.0
 30
0.0
  0
ENDSEC
  0
EOF
