  0
SECTION
  2
HEADER
  9
$ACADVER
  1
AC1009
  9
$INSBASE
 10
0.0
 20
0.0
 30
0.0
  9
$EXTMIN
 10
498.59628977556707
 20
499.86426650996867
 30
-0.0000000000112498
  9
$EXTMAX
 10
20500.122143072222
 20
14351.49541261082
 30
0.0000000000002956
  9
$LIMMIN
 10
0.0
 20
0.0
  9
$LIMMAX
 10
42000.0
 20
29700.0
  9
$ORTHOMODE
 70
     0
  9
$REGENMODE
 70
     1
  9
$FILLMODE
 70
     1
  9
$QTEXTMODE
 70
     0
  9
$MIRRTEXT
 70
     0
  9
$DRAGMODE
 70
     2
  9
$LTSCALE
 40
100.0
  9
$OSMODE
 70
    37
  9
$ATTMODE
 70
     1
  9
$TEXTSIZE
 40
200.0
  9
$TRACEWID
 40
1.0
  9
$TEXTSTYLE
  7
STANDARD
  9
$CLAYER
  8
0
  9
$CELTYPE
  6
BYLAYER
  9
$CECOLOR
 62
   256
  9
$DIMSCALE
 40
50.0
  9
$DIMASZ
 40
3.0
  9
$DIMEXO
 40
5.0
  9
$DIMDLI
 40
3.75
  9
$DIMRND
 40
0.0
  9
$DIMDLE
 40
0.0
  9
$DIMEXE
 40
1.25
  9
$DIMTP
 40
0.0
  9
$DIMTM
 40
0.0
  9
$DIMTXT
 40
100.0
  9
$DIMCEN
 40
2.5
  9
$DIMTSZ
 40
0.0
  9
$DIMTOL
 70
     0
  9
$DIMLIM
 70
     0
  9
$DIMTIH
 70
     0
  9
$DIMTOH
 70
     0
  9
$DIMSE1
 70
     0
  9
$DIMSE2
 70
     0
  9
$DIMTAD
 70
     1
  9
$DIMZIN
 70
     8
  9
$DIMBLK
  1
DOTSMALL
  9
$DIMASO
 70
     1
  9
$DIMSHO
 70
     1
  9
$DIMPOST
  1

  9
$DIMAPOST
  1

  9
$DIMALT
 70
     0
  9
$DIMALTD
 70
     3
  9
$DIMALTF
 40
0.03937007874016
  9
$DIMLFAC
 40
1.0
  9
$DIMTOFL
 70
     1
  9
$DIMTVP
 40
0.0
  9
$DIMTIX
 70
     0
  9
$DIMSOXD
 70
     0
  9
$DIMSAH
 70
     0
  9
$DIMBLK1
  1

  9
$DIMBLK2
  1

  9
$DIMSTYLE
  2
A3-50
  9
$DIMCLRD
 70
     0
  9
$DIMCLRE
 70
     0
  9
$DIMCLRT
 70
     0
  9
$DIMTFAC
 40
1.0
  9
$DIMGAP
 40
0.625
  9
$LUNITS
 70
     2
  9
$LUPREC
 70
     0
  9
$SKETCHINC
 40
1.0
  9
$FILLETRAD
 40
0.0
  9
$AUNITS
 70
     0
  9
$AUPREC
 70
     0
  9
$MENU
  1
.
  9
$ELEVATION
 40
0.0
  9
$PELEVATION
 40
0.0
  9
$THICKNESS
 40
0.0
  9
$LIMCHECK
 70
     0
  9
$BLIPMODE
 70
     0
  9
$CHAMFERA
 40
0.0
  9
$CHAMFERB
 40
0.0
  9
$SKPOLY
 70
     0
  9
$TDCREATE
 40
2454883.429683669
  9
$TDUPDATE
 40
2456185.3883776851
  9
$TDINDWG
 40
0.0642652778
  9
$TDUSRTIMER
 40
0.0642650463
  9
$USRTIMER
 70
     1
  9
$ANGBASE
 50
0.0
  9
$ANGDIR
 70
     0
  9
$PDMODE
 70
     0
  9
$PDSIZE
 40
0.0
  9
$PLINEWID
 40
0.0
  9
$COORDS
 70
     1
  9
$SPLFRAME
 70
     0
  9
$SPLINETYPE
 70
     6
  9
$SPLINESEGS
 70
     8
  9
$ATTDIA
 70
     0
  9
$ATTREQ
 70
     1
  9
$HANDLING
 70
     1
  9
$HANDSEED
  5
4EC
  9
$SURFTAB1
 70
     6
  9
$SURFTAB2
 70
     6
  9
$SURFTYPE
 70
     6
  9
$SURFU
 70
     6
  9
$SURFV
 70
     6
  9
$UCSNAME
  2

  9
$UCSORG
 10
0.0
 20
0.0
 30
0.0
  9
$UCSXDIR
 10
1.0
 20
0.0
 30
0.0
  9
$UCSYDIR
 10
0.0
 20
1.0
 30
0.0
  9
$PUCSNAME
  2

  9
$PUCSORG
 10
0.0
 20
0.0
 30
0.0
  9
$PUCSXDIR
 10
1.0
 20
0.0
 30
0.0
  9
$PUCSYDIR
 10
0.0
 20
1.0
 30
0.0
  9
$USERI1
 70
     0
  9
$USERI2
 70
     0
  9
$USERI3
 70
     0
  9
$USERI4
 70
     0
  9
$USERI5
 70
     0
  9
$USERR1
 40
0.0
  9
$USERR2
 40
0.0
  9
$USERR3
 40
0.0
  9
$USERR4
 40
0.0
  9
$USERR5
 40
0.0
  9
$WORLDVIEW
 70
     1
  9
$SHADEDGE
 70
     3
  9
$SHADEDIF
 70
    70
  9
$TILEMODE
 70
     1
  9
$MAXACTVP
 70
    64
  9
$PLIMCHECK
 70
     0
  9
$PEXTMIN
 10
1.0000000000000000E+020
 20
1.0000000000000000E+020
 30
1.0000000000000000E+020
  9
$PEXTMAX
 10
-1.0000000000000000E+020
 20
-1.0000000000000000E+020
 30
-1.0000000000000000E+020
  9
$PLIMMIN
 10
0.0
 20
0.0
  9
$PLIMMAX
 10
420.0
 20
297.0
  9
$UNITMODE
 70
     0
  9
$VISRETAIN
 70
     1
  9
$PLINEGEN
 70
     0
  9
$PSLTSCALE
 70
     1
  0
ENDSEC
  0
SECTION
  2
TABLES
  0
TABLE
  2
VPORT
 70
     1
  0
VPORT
  2
*ACTIVE
 70
     0
 10
0.0
 20
0.0
 11
1.0
 21
1.0
 12
11143.87329905858
 22
6878.3672819507756
 13
0.0
 23
0.0
 14
10.0
 24
10.0
 15
10.0
 25
10.0
 16
0.0
 26
0.0
 36
1.0
 17
0.0
 27
0.0
 37
0.0
 40
16397.297328243079
 41
2.0180722891566258
 42
50.0
 43
0.0
 44
0.0
 50
0.0
 51
0.0
 71
     0
 72
  1000
 73
     1
 74
     3
 75
     0
 76
     1
 77
     0
 78
     0
  0
ENDTAB
  0
TABLE
  2
LTYPE
 70
     3
  0
LTYPE
  2
CONTINUOUS
 70
     0
  3
Solid line
 72
    65
 73
     0
 40
0.0
  0
LTYPE
  2
DOT2
 70
     0
  3
Dot (.5x) .....................................
 72
    65
 73
     2
 40
3.1749999999999989
 49
0.0
 49
-3.1749999999999989
  0
ENDTAB
  0
TABLE
  2
LAYER
 70
     3
  0
LAYER
  2
0
 70
     0
 62
     7
  6
CONTINUOUS
  0
LAYER
  2
図面枠
 70
     0
 62
     7
  6
CONTINUOUS
  0
LAYER
  2
DEFPOINTS
 70
     0
 62
     7
  6
CONTINUOUS
  0
ENDTAB
  0
TABLE
  2
STYLE
 70
     6
  0
STYLE
  2
STANDARD
 70
     0
 40
100.0
 41
1.0
 50
0.0
 71
     0
 42
200.0
  3
txt
  4

  0
STYLE
  2

 70
     1
 40
0.0
 41
1.0
 50
0.0
 71
     0
 42
200.0
  3
ltypeshp.shx
  4

  0
ENDTAB
  0
TABLE
  2
VIEW
 70
     0
  0
ENDTAB
  0
TABLE
  2
UCS
 70
     0
  0
ENDTAB
  0
TABLE
  2
APPID
 70
     8
  0
APPID
  2
ACAD
 70
     0
  0
APPID
  2
ACAD_NAV_VCDISPLAY
 70
     0
  0
APPID
  2
ACAD_EXEMPT_FROM_CAD_STANDARDS
 70
     0
  0
APPID
  2
ACAD_PSEXT
 70
     0
  0
APPID
  2
ACADANNOPO
 70
     0
  0
APPID
  2
ACAD_DSTYLE_DIMJAG
 70
     0
  0
APPID
  2
ACAD_DSTYLE_DIMTALN
 70
     0
  0
APPID
  2
ACAD_MLEADERVER
 70
     0
  0
ENDTAB
  0
TABLE
  2
DIMSTYLE
 70
     6
  0
DIMSTYLE
  2
ISO-25
 70
     0
  3

  4

  5

  6

  7

 40
1.0
 41
2.5
 42
0.625
 43
3.75
 44
1.25
 45
0.0
 46
0.0
 47
0.0
 48
0.0
140
2.5
141
2.5
142
0.0
143
0.03937007874016
144
1.0
145
0.0
146
1.0
147
0.625
 71
     0
 72
     0
 73
     0
 74
     0
 75
     0
 76
     0
 77
     1
 78
     8
170
     0
171
     3
172
     1
173
     0
174
     0
175
     0
176
     0
177
     0
178
     0
  0
DIMSTYLE
  2
A3-50
 70
     0
  3

  4

  5
DOTSMALL
  6

  7

 40
50.0
 41
3.0
 42
5.0
 43
3.75
 44
1.25
 45
0.0
 46
0.0
 47
0.0
 48
0.0
140
100.0
141
2.5
142
0.0
143
0.03937007874016
144
1.0
145
0.0
146
1.0
147
0.625
 71
     0
 72
     0
 73
     0
 74
     0
 75
     0
 76
     0
 77
     1
 78
     8
170
     0
171
     3
172
     1
173
     0
174
     0
175
     0
176
     0
177
     0
178
     0
  0
ENDTAB
  0
ENDSEC
  0
SECTION
  2
BLOCKS
  0
BLOCK
  8
0
  2
$MODEL_SPACE
 70
     0
 10
0.0
 20
0.0
 30
0.0
  3
$MODEL_SPACE
  1

  0
ENDBLK
  5
23
  8
0
  0
BLOCK
 67
     1
  8
0
  2
$PAPER_SPACE
 70
     0
 10
0.0
 20
0.0
 30
0.0
  3
$PAPER_SPACE
  1

  0
ENDBLK
  5
1F
 67
     1
  8
0
  0
BLOCK
  8
0
  2
_DOTSMALL
 70
     0
 10
0.0
 20
0.0
 30
0.0
  3
_DOTSMALL
  1

  0
POLYLINE
  5
53
  8
0
  6
BYBLOCK
 62
     0
 66
     1
 10
0.0
 20
0.0
 30
0.0
 70
     1
 40
0.5
 41
0.5
  0
VERTEX
  5
49E
  8
0
  6
BYBLOCK
 62
     0
 10
-0.0625
 20
0.0
 30
0.0
 42
1.0
  0
VERTEX
  5
49F
  8
0
  6
BYBLOCK
 62
     0
 10
0.0625
 20
0.0
 30
0.0
 42
1.0
  0
SEQEND
  5
4A0
  8
0
  6
BYBLOCK
 62
     0
  0
ENDBLK
  5
55
  8
0
  0
BLOCK
  8
0
  2
_OPEN30
 70
     0
 10
0.0
 20
0.0
 30
0.0
  3
_OPEN30
  1

  0
LINE
  5
57
  8
0
  6
BYBLOCK
 62
     0
 10
-1.0
 20
0.26794919
 30
0.0
 11
0.0
 21
0.0
 31
0.0
  0
LINE
  5
58
  8
0
  6
BYBLOCK
 62
     0
 10
0.0
 20
0.0
 30
0.0
 11
-1.0
 21
-0.26794919
 31
0.0
  0
LINE
  5
59
  8
0
  6
BYBLOCK
 62
     0
 10
0.0
 20
0.0
 30
0.0
 11
-1.0
 21
0.0
 31
0.0
  0
ENDBLK
  5
5B
  8
0
  0
BLOCK
  8
0
  2
*D3
 70
     1
 10
0.0
 20
0.0
 30
0.0
  3
*D3
  1

  0
LINE
  5
16F
  8
0
 62
     0
 10
11802.622432907459
 20
19407.401540639279
 30
0.0
 11
11802.622432907459
 21
20389.59835093121
 31
0.0
  0
LINE
  5
170
  8
0
 62
     0
 10
21748.131306393971
 20
19407.401540639279
 30
0.0
 11
21748.131306393971
 21
20389.59835093121
 31
0.0
  0
LINE
  5
171
  8
0
 62
     0
 10
11802.622432907459
 20
20264.59835093121
 30
0.0
 11
21748.131306393971
 21
20264.59835093121
 31
0.0
  0
INSERT
  5
172
  8
0
 62
     0
  2
_DOTSMALL
 10
11802.622432907459
 20
20264.59835093121
 30
0.0
 41
300.0
 42
300.0
 43
300.0
 50
180.0
  0
INSERT
  5
173
  8
0
 62
     0
  2
_DOTSMALL
 10
21748.131306393971
 20
20264.59835093121
 30
0.0
 41
300.0
 42
300.0
 43
300.0
  0
INSERT
  5
174
  8
0
  2
*U12
 10
0.0
 20
0.0
 30
0.0
  0
POINT
  5
175
  8
DEFPOINTS
 62
     0
 10
11802.622432907459
 20
18907.401540639279
 30
0.0
  0
POINT
  5
176
  8
DEFPOINTS
 62
     0
 10
21748.131306393971
 20
18907.401540639279
 30
0.0
  0
POINT
  5
177
  8
DEFPOINTS
 62
     0
 10
21748.131306393971
 20
20264.59835093121
 30
0.0
  0
ENDBLK
  5
164
  8
0
  0
BLOCK
  8
0
  2
*D4
 70
     1
 10
0.0
 20
0.0
 30
0.0
  3
*D4
  1

  0
LINE
  5
187
  8
0
 62
     0
 10
22248.131306393982
 20
11442.81863042823
 30
0.0
 11
23870.221566298162
 21
11442.81863042823
 31
0.0
  0
LINE
  5
188
  8
0
 62
     0
 10
22248.131306393982
 20
18907.401540639279
 30
0.0
 11
23870.221566298162
 21
18907.401540639279
 31
0.0
  0
LINE
  5
189
  8
0
 62
     0
 10
23745.221566298162
 20
11442.81863042823
 30
0.0
 11
23745.221566298162
 21
18907.401540639279
 31
0.0
  0
INSERT
  5
18A
  8
0
 62
     0
  2
_DOTSMALL
 10
23745.221566298162
 20
11442.81863042823
 30
0.0
 41
300.0
 42
300.0
 43
300.0
 50
270.0
  0
INSERT
  5
18B
  8
0
 62
     0
  2
_DOTSMALL
 10
23745.221566298162
 20
18907.401540639279
 30
0.0
 41
300.0
 42
300.0
 43
300.0
 50
90.0
  0
INSERT
  5
18C
  8
0
  2
*U13
 10
0.0
 20
0.0
 30
0.0
  0
POINT
  5
18D
  8
DEFPOINTS
 62
     0
 10
21748.131306393971
 20
11442.81863042823
 30
0.0
  0
POINT
  5
18E
  8
DEFPOINTS
 62
     0
 10
21748.131306393971
 20
18907.401540639279
 30
0.0
  0
POINT
  5
18F
  8
DEFPOINTS
 62
     0
 10
23745.221566298162
 20
18907.401540639279
 30
0.0
  0
ENDBLK
  5
17C
  8
0
  0
BLOCK
  8
0
  2
*D6
 70
     1
 10
0.0
 20
0.0
 30
0.0
  3
*D6
  1

  0
LINE
  5
323
  8
0
 62
     0
 10
5617.4974295905849
 20
10657.19565464982
 30
0.0
 11
5617.4974295905849
 21
11255.67140772369
 31
0.0
  0
LINE
  5
324
  8
0
 62
     0
 10
10385.2990669643
 20
10657.19565464982
 30
0.0
 11
10385.2990669643
 21
11255.67140772369
 31
0.0
  0
LINE
  5
325
  8
0
 62
     0
 10
5617.4974295905849
 20
11130.671407723699
 30
0.0
 11
10385.2990669643
 21
11130.671407723699
 31
0.0
  0
INSERT
  5
326
  8
0
 62
     0
  2
_DOTSMALL
 10
5617.4974295905849
 20
11130.671407723699
 30
0.0
 41
300.0
 42
300.0
 43
300.0
 50
180.0
  0
INSERT
  5
327
  8
0
 62
     0
  2
_DOTSMALL
 10
10385.2990669643
 20
11130.671407723699
 30
0.0
 41
300.0
 42
300.0
 43
300.0
  0
INSERT
  5
328
  8
0
  2
*U14
 10
0.0
 20
0.0
 30
0.0
  0
POINT
  5
329
  8
DEFPOINTS
 62
     0
 10
5617.4974295905849
 20
10157.19565464982
 30
0.0
  0
POINT
  5
32A
  8
DEFPOINTS
 62
     0
 10
10385.2990669643
 20
10157.19565464982
 30
0.0
  0
POINT
  5
32B
  8
DEFPOINTS
 62
     0
 10
10385.2990669643
 20
11130.671407723699
 30
0.0
  0
ENDBLK
  5
318
  8
0
  0
BLOCK
  8
0
  2
*D7
 70
     1
 10
0.0
 20
0.0
 30
0.0
  3
*D7
  1

  0
LINE
  5
33F
  8
0
 62
     0
 10
7998.6418995157292
 20
6819.8539195118492
 30
0.0
 11
7998.6418995157292
 21
8847.0953087922098
 31
0.0
  0
LINE
  5
340
  8
0
 62
     0
 10
10150.025306512311
 20
6819.8539195118492
 30
0.0
 11
10150.025306512311
 21
8847.0953087922098
 31
0.0
  0
LINE
  5
341
  8
0
 62
     0
 10
7998.6418995157292
 20
8784.5953087922098
 30
0.0
 11
10150.025306512311
 21
8784.5953087922098
 31
0.0
  0
INSERT
  5
342
  8
0
 62
     0
  2
_DOTSMALL
 10
7998.6418995157292
 20
8784.5953087922098
 30
0.0
 41
150.0
 42
150.0
 43
150.0
 50
180.0
  0
INSERT
  5
343
  8
0
 62
     0
  2
_DOTSMALL
 10
10150.025306512311
 20
8784.5953087922098
 30
0.0
 41
150.0
 42
150.0
 43
150.0
  0
INSERT
  5
344
  8
0
  2
*U15
 10
0.0
 20
0.0
 30
0.0
  0
POINT
  5
345
  8
DEFPOINTS
 62
     0
 10
7998.6418995157292
 20
6569.8539195118492
 30
0.0
  0
POINT
  5
346
  8
DEFPOINTS
 62
     0
 10
10150.025306512311
 20
6569.8539195118492
 30
0.0
  0
POINT
  5
347
  8
DEFPOINTS
 62
     0
 10
10150.025306512311
 20
8784.5953087922098
 30
0.0
  0
ENDBLK
  5
334
  8
0
  0
BLOCK
  8
0
  2
*D8
 70
     1
 10
0.0
 20
0.0
 30
0.0
  3
*D8
  1

  0
LINE
  5
357
  8
0
 62
     0
 10
10400.025306512311
 20
4322.7804374094248
 30
0.0
 11
11183.07423785733
 21
4322.7804374094248
 31
0.0
  0
LINE
  5
358
  8
0
 62
     0
 10
10400.025306512311
 20
6569.8539195118492
 30
0.0
 11
11183.07423785733
 21
6569.8539195118492
 31
0.0
  0
LINE
  5
359
  8
0
 62
     0
 10
11120.57423785733
 20
4322.7804374094248
 30
0.0
 11
11120.57423785733
 21
6569.8539195118492
 31
0.0
  0
INSERT
  5
35A
  8
0
 62
     0
  2
_DOTSMALL
 10
11120.57423785733
 20
4322.7804374094248
 30
0.0
 41
150.0
 42
150.0
 43
150.0
 50
270.0
  0
INSERT
  5
35B
  8
0
 62
     0
  2
_DOTSMALL
 10
11120.57423785733
 20
6569.8539195118492
 30
0.0
 41
150.0
 42
150.0
 43
150.0
 50
90.0
  0
INSERT
  5
35C
  8
0
  2
*U16
 10
0.0
 20
0.0
 30
0.0
  0
POINT
  5
35D
  8
DEFPOINTS
 62
     0
 10
10150.025306512311
 20
4322.7804374094258
 30
0.0
  0
POINT
  5
35E
  8
DEFPOINTS
 62
     0
 10
10150.025306512311
 20
6569.8539195118492
 30
0.0
  0
POINT
  5
35F
  8
DEFPOINTS
 62
     0
 10
11120.57423785733
 20
6569.8539195118492
 30
0.0
  0
ENDBLK
  5
34C
  8
0
  0
BLOCK
  8
0
  2
*U12
 70
     1
 10
0.0
 20
0.0
 30
0.0
  3
*U12
  1

  0
TEXT
  5
4D9
  8
0
 62
     0
 10
16484.467778741619
 20
20327.098350931199
 30
0.0
 40
200.0
  1
9946
  0
ENDBLK
  5
4DB
  8
0
  0
BLOCK
  8
0
  2
*U13
 70
     1
 10
0.0
 20
0.0
 30
0.0
  3
*U13
  1

  0
TEXT
  5
4DD
  8
0
 62
     0
 10
23682.721566298162
 20
14881.928267351939
 30
0.0
 40
200.0
  1
7465
 50
90.0
  0
ENDBLK
  5
4DF
  8
0
  0
BLOCK
  8
0
  2
*U14
 70
     1
 10
0.0
 20
0.0
 30
0.0
  3
*U14
  1

  0
TEXT
  5
4E1
  8
0
 62
     0
 10
7712.1937028228976
 20
11193.171407723699
 30
0.0
 40
200.0
  1
4768
  0
ENDBLK
  5
4E3
  8
0
  0
BLOCK
  8
0
  2
*U15
 70
     1
 10
0.0
 20
0.0
 30
0.0
  3
*U15
  1

  0
TEXT
  5
4E5
  8
0
 62
     0
 10
8938.8222393776541
 20
8815.8453087922098
 30
0.0
 40
100.0
  1
2151
  0
ENDBLK
  5
4E7
  8
0
  0
BLOCK
  8
0
  2
*U16
 70
     1
 10
0.0
 20
0.0
 30
0.0
  3
*U16
  1

  0
TEXT
  5
4E9
  8
0
 62
     0
 10
11089.32423785733
 20
5301.7149057333663
 30
0.0
 40
100.0
  1
2247
 50
90.0
  0
ENDBLK
  5
4EB
  8
0
  0
ENDSEC
  0
SECTION
  2
ENTITIES
  0
LINE
  5
30
  8
図面枠
 10
499.99999999999989
 20
500.0
 30
0.0
 11
20500.0
 21
500.0
 31
0.0
  0
LINE
  5
B6
  8
図面枠
 10
499.99999999999989
 20
1350.0
 30
0.0
 11
20500.0
 21
1350.0
 31
0.0
  0
LINE
  5
B9
  8
図面枠
 10
500.0
 20
500.0
 30
0.0
 11
20500.0
 21
500.0
 31
0.0
  0
LINE
  5
C4
  8
0
 10
14900.0
 20
1099.9999999999991
 30
0.0
 11
17400.0
 21
1099.9999999999991
 31
0.0
  0
LINE
  5
C5
  8
0
 10
14900.0
 20
949.99999999999955
 30
0.0
 11
17400.0
 21
949.99999999999955
 31
0.0
  0
LINE
  5
C6
  8
0
 10
14900.0
 20
799.99999999999955
 30
0.0
 11
17400.0
 21
799.99999999999955
 31
0.0
  0
LINE
  5
C7
  8
0
 10
14900.0
 20
649.99999999999955
 30
0.0
 11
17400.0
 21
649.99999999999955
 31
0.0
  0
LINE
  5
CB
  8
0
 10
17500.0
 20
1025.0
 30
0.0
 11
19500.0
 21
1025.0
 31
0.0
  0
LINE
  5
D6
  8
0
 10
499.99999999999989
 20
1025.0
 30
0.0
 11
4000.0
 21
1025.0
 31
0.0
  0
LINE
  5
D8
  8
0
 10
499.99999999999989
 20
762.5
 30
0.0
 11
4000.0
 21
762.5
 31
0.0
  0
LINE
  5
DD
  8
0
 10
4100.0
 20
762.5
 30
0.0
 11
7600.0
 21
762.5
 31
0.0
  0
LINE
  5
DE
  8
0
 10
4100.0
 20
1025.0
 30
0.0
 11
7600.0
 21
1025.0
 31
0.0
  0
LINE
  5
E1
  8
0
 10
7700.0
 20
1025.0
 30
0.0
 11
9700.0
 21
1025.0
 31
0.0
  0
LINE
  5
E2
  8
0
 10
7700.0
 20
762.5
 30
0.0
 11
9700.0
 21
762.5
 31
0.0
  0
LINE
  5
EC
  8
0
  6
DOT2
 62
   255
 10
20500.0
 20
500.0
 30
0.0
 11
20500.0
 21
14350.0
 31
0.0
  0
LINE
  5
ED
  8
0
  6
DOT2
 62
   255
 10
20500.0
 20
14350.0
 30
0.0
 11
500.0
 21
14350.0
 31
0.0
  0
LINE
  5
EE
  8
0
  6
DOT2
 62
   255
 10
500.0
 20
14350.0
 30
0.0
 11
500.0
 21
500.0
 31
0.0
  0
ENDSEC
  0
EOF
