  0
SECTION
  2
HEADER
  9
$ACADVER
  1
AC1009
  9
$INSBASE
 10
0.0
 20
0.0
 30
0.0
  9
$EXTMIN
 10
-0.6404192875052104
 20
-0.4528679247305263
 30
-0.0000000000112498
  9
$EXTMAX
 10
42000.641006056518
 20
29700.453282854269
 30
0.0000000000002956
  9
$LIMMIN
 10
0.0
 20
0.0
  9
$LIMMAX
 10
42000.0
 20
29700.0
  9
$ORTHOMODE
 70
     0
  9
$REGENMODE
 70
     1
  9
$FILLMODE
 70
     1
  9
$QTEXTMODE
 70
     0
  9
$MIRRTEXT
 70
     0
  9
$DRAGMODE
 70
     2
  9
$LTSCALE
 40
100.0
  9
$OSMODE
 70
    37
  9
$ATTMODE
 70
     1
  9
$TEXTSIZE
 40
200.0
  9
$TRACEWID
 40
1.0
  9
$TEXTSTYLE
  7
A3_1-100_
  9
$CLAYER
  8
0
  9
$CELTYPE
  6
BYLAYER
  9
$CECOLOR
 62
   256
  9
$DIMSCALE
 40
100.0
  9
$DIMASZ
 40
3.0
  9
$DIMEXO
 40
5.0
  9
$DIMDLI
 40
3.75
  9
$DIMRND
 40
0.0
  9
$DIMDLE
 40
0.0
  9
$DIMEXE
 40
1.25
  9
$DIMTP
 40
0.0
  9
$DIMTM
 40
0.0
  9
$DIMTXT
 40
200.0
  9
$DIMCEN
 40
2.5
  9
$DIMTSZ
 40
0.0
  9
$DIMTOL
 70
     0
  9
$DIMLIM
 70
     0
  9
$DIMTIH
 70
     0
  9
$DIMTOH
 70
     0
  9
$DIMSE1
 70
     0
  9
$DIMSE2
 70
     0
  9
$DIMTAD
 70
     1
  9
$DIMZIN
 70
     8
  9
$DIMBLK
  1
DOTSMALL
  9
$DIMASO
 70
     1
  9
$DIMSHO
 70
     1
  9
$DIMPOST
  1

  9
$DIMAPOST
  1

  9
$DIMALT
 70
     0
  9
$DIMALTD
 70
     3
  9
$DIMALTF
 40
0.03937007874016
  9
$DIMLFAC
 40
1.0
  9
$DIMTOFL
 70
     1
  9
$DIMTVP
 40
0.0
  9
$DIMTIX
 70
     0
  9
$DIMSOXD
 70
     0
  9
$DIMSAH
 70
     0
  9
$DIMBLK1
  1

  9
$DIMBLK2
  1

  9
$DIMSTYLE
  2
A3-100
  9
$DIMCLRD
 70
     0
  9
$DIMCLRE
 70
     0
  9
$DIMCLRT
 70
     0
  9
$DIMTFAC
 40
1.0
  9
$DIMGAP
 40
0.625
  9
$LUNITS
 70
     2
  9
$LUPREC
 70
     0
  9
$SKETCHINC
 40
1.0
  9
$FILLETRAD
 40
0.0
  9
$AUNITS
 70
     0
  9
$AUPREC
 70
     0
  9
$MENU
  1
.
  9
$ELEVATION
 40
0.0
  9
$PELEVATION
 40
0.0
  9
$THICKNESS
 40
0.0
  9
$LIMCHECK
 70
     0
  9
$BLIPMODE
 70
     0
  9
$CHAMFERA
 40
0.0
  9
$CHAMFERB
 40
0.0
  9
$SKPOLY
 70
     0
  9
$TDCREATE
 40
2454883.429683669
  9
$TDUPDATE
 40
2455783.459053217
  9
$TDINDWG
 40
0.0252947685
  9
$TDUSRTIMER
 40
0.025294537
  9
$USRTIMER
 70
     1
  9
$ANGBASE
 50
0.0
  9
$ANGDIR
 70
     0
  9
$PDMODE
 70
     0
  9
$PDSIZE
 40
0.0
  9
$PLINEWID
 40
0.0
  9
$COORDS
 70
     1
  9
$SPLFRAME
 70
     0
  9
$SPLINETYPE
 70
     6
  9
$SPLINESEGS
 70
     8
  9
$ATTDIA
 70
     0
  9
$ATTREQ
 70
     1
  9
$HANDLING
 70
     1
  9
$HANDSEED
  5
2C3
  9
$SURFTAB1
 70
     6
  9
$SURFTAB2
 70
     6
  9
$SURFTYPE
 70
     6
  9
$SURFU
 70
     6
  9
$SURFV
 70
     6
  9
$UCSNAME
  2

  9
$UCSORG
 10
0.0
 20
0.0
 30
0.0
  9
$UCSXDIR
 10
1.0
 20
0.0
 30
0.0
  9
$UCSYDIR
 10
0.0
 20
1.0
 30
0.0
  9
$PUCSNAME
  2

  9
$PUCSORG
 10
0.0
 20
0.0
 30
0.0
  9
$PUCSXDIR
 10
1.0
 20
0.0
 30
0.0
  9
$PUCSYDIR
 10
0.0
 20
1.0
 30
0.0
  9
$USERI1
 70
     0
  9
$USERI2
 70
     0
  9
$USERI3
 70
     0
  9
$USERI4
 70
     0
  9
$USERI5
 70
     0
  9
$USERR1
 40
0.0
  9
$USERR2
 40
0.0
  9
$USERR3
 40
0.0
  9
$USERR4
 40
0.0
  9
$USERR5
 40
0.0
  9
$WORLDVIEW
 70
     1
  9
$SHADEDGE
 70
     3
  9
$SHADEDIF
 70
    70
  9
$TILEMODE
 70
     1
  9
$MAXACTVP
 70
    64
  9
$PLIMCHECK
 70
     0
  9
$PEXTMIN
 10
1.0000000000000000E+020
 20
1.0000000000000000E+020
 30
1.0000000000000000E+020
  9
$PEXTMAX
 10
-1.0000000000000000E+020
 20
-1.0000000000000000E+020
 30
-1.0000000000000000E+020
  9
$PLIMMIN
 10
0.0
 20
0.0
  9
$PLIMMAX
 10
420.0
 20
297.0
  9
$UNITMODE
 70
     0
  9
$VISRETAIN
 70
     1
  9
$PLINEGEN
 70
     0
  9
$PSLTSCALE
 70
     1
  0
ENDSEC
  0
SECTION
  2
TABLES
  0
TABLE
  2
VPORT
 70
     1
  0
VPORT
  2
*ACTIVE
 70
     0
 10
0.0
 20
0.0
 11
1.0
 21
1.0
 12
21000.00029338451
 22
14850.000207464769
 13
0.0
 23
0.0
 14
10.0
 24
10.0
 15
10.0
 25
10.0
 16
0.0
 26
0.0
 36
1.0
 17
0.0
 27
0.0
 37
0.0
 40
29988.798617507069
 41
2.3025889967637529
 42
50.0
 43
0.0
 44
0.0
 50
0.0
 51
0.0
 71
     0
 72
  1000
 73
     1
 74
     3
 75
     0
 76
     1
 77
     0
 78
     0
  0
ENDTAB
  0
TABLE
  2
LTYPE
 70
     4
  0
LTYPE
  2
CONTINUOUS
 70
     0
  3
Solid line
 72
    65
 73
     0
 40
0.0
  0
LTYPE
  2
DASHED2
 70
     0
  3
Dashed (.5x) _ _ _ _ _ _ _ _ _ _ _ _ _ _ _ _ _
 72
    65
 73
     2
 40
9.5249999999999986
 49
6.3499999999999988
 49
-3.1749999999999989
  0
ENDTAB
  0
TABLE
  2
LAYER
 70
     3
  0
LAYER
  2
0
 70
     0
 62
     7
  6
CONTINUOUS
  0
LAYER
  2
図面枠
 70
     0
 62
     7
  6
CONTINUOUS
  0
LAYER
  2
DEFPOINTS
 70
     0
 62
     7
  6
CONTINUOUS
  0
ENDTAB
  0
TABLE
  2
STYLE
 70
     5
  0
STYLE
  2
STANDARD
 70
     0
 40
200.0
 41
1.0
 50
0.0
 71
     0
 42
200.0
  3
txt
  4

  0
STYLE
  2
A3_1-100_
 70
     0
 40
200.0
 41
1.0
 50
0.0
 71
     0
 42
200.0
  3
txt
  4

  0
STYLE
  2

 70
     1
 40
0.0
 41
1.0
 50
0.0
 71
     0
 42
200.0
  3
ltypeshp.shx
  4

  0
ENDTAB
  0
TABLE
  2
VIEW
 70
     0
  0
ENDTAB
  0
TABLE
  2
UCS
 70
     0
  0
ENDTAB
  0
TABLE
  2
APPID
 70
     7
  0
APPID
  2
ACAD
 70
     0
  0
APPID
  2
ACADANNOPO
 70
     0
  0
APPID
  2
ACAD_DSTYLE_DIMJAG
 70
     0
  0
APPID
  2
ACAD_DSTYLE_DIMTALN
 70
     0
  0
APPID
  2
ACAD_EXEMPT_FROM_CAD_STANDARDS
 70
     0
  0
APPID
  2
ACAD_NAV_VCDISPLAY
 70
     0
  0
APPID
  2
ACAD_MLEADERVER
 70
     0
  0
ENDTAB
  0
TABLE
  2
DIMSTYLE
 70
     5
  0
DIMSTYLE
  2
ISO-25
 70
     0
  3

  4

  5

  6

  7

 40
1.0
 41
2.5
 42
0.625
 43
3.75
 44
1.25
 45
0.0
 46
0.0
 47
0.0
 48
0.0
140
2.5
141
2.5
142
0.0
143
0.03937007874016
144
1.0
145
0.0
146
1.0
147
0.625
 71
     0
 72
     0
 73
     0
 74
     0
 75
     0
 76
     0
 77
     1
 78
     8
170
     0
171
     3
172
     1
173
     0
174
     0
175
     0
176
     0
177
     0
178
     0
  0
DIMSTYLE
  2
A3-100
 70
     0
  3

  4

  5
DOTSMALL
  6

  7

 40
100.0
 41
3.0
 42
5.0
 43
3.75
 44
1.25
 45
0.0
 46
0.0
 47
0.0
 48
0.0
140
200.0
141
2.5
142
0.0
143
0.03937007874016
144
1.0
145
0.0
146
1.0
147
0.625
 71
     0
 72
     0
 73
     0
 74
     0
 75
     0
 76
     0
 77
     1
 78
     8
170
     0
171
     3
172
     1
173
     0
174
     0
175
     0
176
     0
177
     0
178
     0
  0
ENDTAB
  0
ENDSEC
  0
SECTION
  2
BLOCKS
  0
BLOCK
  8
0
  2
$MODEL_SPACE
 70
     0
 10
0.0
 20
0.0
 30
0.0
  3
$MODEL_SPACE
  1

  0
ENDBLK
  5
23
  8
0
  0
BLOCK
 67
     1
  8
0
  2
$PAPER_SPACE
 70
     0
 10
0.0
 20
0.0
 30
0.0
  3
$PAPER_SPACE
  1

  0
ENDBLK
  5
1F
 67
     1
  8
0
  0
BLOCK
  8
0
  2
_DOTSMALL
 70
     0
 10
0.0
 20
0.0
 30
0.0
  3
_DOTSMALL
  1

  0
POLYLINE
  5
53
  8
0
  6
BYBLOCK
 62
     0
 66
     1
 10
0.0
 20
0.0
 30
0.0
 70
     1
 40
0.5
 41
0.5
  0
VERTEX
  5
208
  8
0
  6
BYBLOCK
 62
     0
 10
-0.0625
 20
0.0
 30
0.0
 42
1.0
  0
VERTEX
  5
209
  8
0
  6
BYBLOCK
 62
     0
 10
0.0625
 20
0.0
 30
0.0
 42
1.0
  0
SEQEND
  5
20A
  8
0
  6
BYBLOCK
 62
     0
  0
ENDBLK
  5
55
  8
0
  0
BLOCK
  8
0
  2
_OPEN30
 70
     0
 10
0.0
 20
0.0
 30
0.0
  3
_OPEN30
  1

  0
LINE
  5
57
  8
0
  6
BYBLOCK
 62
     0
 10
-1.0
 20
0.26794919
 30
0.0
 11
0.0
 21
0.0
 31
0.0
  0
LINE
  5
58
  8
0
  6
BYBLOCK
 62
     0
 10
0.0
 20
0.0
 30
0.0
 11
-1.0
 21
-0.26794919
 31
0.0
  0
LINE
  5
59
  8
0
  6
BYBLOCK
 62
     0
 10
0.0
 20
0.0
 30
0.0
 11
-1.0
 21
0.0
 31
0.0
  0
ENDBLK
  5
5B
  8
0
  0
BLOCK
  8
0
  2
_DOT
 70
     0
 10
0.0
 20
0.0
 30
0.0
  3
_DOT
  1

  0
POLYLINE
  5
10C
  8
0
  6
BYBLOCK
 62
     0
 66
     1
 10
0.0
 20
0.0
 30
0.0
 70
     1
 40
0.5
 41
0.5
  0
VERTEX
  5
236
  8
0
  6
BYBLOCK
 62
     0
 10
-0.25
 20
0.0
 30
0.0
 42
1.0
  0
VERTEX
  5
237
  8
0
  6
BYBLOCK
 62
     0
 10
0.25
 20
0.0
 30
0.0
 42
1.0
  0
SEQEND
  5
238
  8
0
  6
BYBLOCK
 62
     0
  0
LINE
  5
10D
  8
0
  6
BYBLOCK
 62
     0
 10
-0.5
 20
0.0
 30
0.0
 11
-1.0
 21
0.0
 31
0.0
  0
ENDBLK
  5
10F
  8
0
  0
BLOCK
  8
0
  2
*U8
 70
     1
 10
0.0
 20
0.0
 30
0.0
  3
*U8
  1

  0
TEXT
  5
23A
  8
0
 62
     0
 10
10528.143097192011
 20
21412.607648411369
 30
0.0
 40
200.0
  1
6158
  7
A3_1-100_
  0
ENDBLK
  5
23C
  8
0
  0
BLOCK
  8
0
  2
*U9
 70
     1
 10
0.0
 20
0.0
 30
0.0
  3
*U9
  1

  0
TEXT
  5
254
  8
0
 10
2768.0966521305681
 20
538.23617602999718
 30
0.0
 40
300.0
  1
1
  7
A3_1-100_
  0
ENDBLK
  5
256
  8
0
  0
BLOCK
  8
0
  2
*U10
 70
     1
 10
0.0
 20
0.0
 30
0.0
  3
*U10
  1

  0
TEXT
  5
258
  8
0
 10
7966.960288494196
 20
538.23617602999786
 30
0.0
 40
300.0
  1
2
  7
A3_1-100_
  0
ENDBLK
  5
25A
  8
0
  0
BLOCK
  8
0
  2
*U11
 70
     1
 10
0.0
 20
0.0
 30
0.0
  3
*U11
  1

  0
TEXT
  5
25C
  8
0
 10
13141.9602884942
 20
538.23617602999786
 30
0.0
 40
300.0
  1
3
  7
A3_1-100_
  0
ENDBLK
  5
25E
  8
0
  0
BLOCK
  8
0
  2
*U12
 70
     1
 10
0.0
 20
0.0
 30
0.0
  3
*U12
  1

  0
TEXT
  5
260
  8
0
 10
18323.77847031238
 20
538.23617602999718
 30
0.0
 40
300.0
  1
4
  7
A3_1-100_
  0
ENDBLK
  5
262
  8
0
  0
BLOCK
  8
0
  2
*U13
 70
     1
 10
0.0
 20
0.0
 30
0.0
  3
*U13
  1

  0
TEXT
  5
264
  8
0
 10
23491.9602884942
 20
538.23617602999718
 30
0.0
 40
300.0
  1
5
  7
A3_1-100_
  0
ENDBLK
  5
266
  8
0
  0
BLOCK
  8
0
  2
*U14
 70
     1
 10
0.0
 20
0.0
 30
0.0
  3
*U14
  1

  0
TEXT
  5
268
  8
0
 10
28665.255743039648
 20
538.23617602999718
 30
0.0
 40
300.0
  1
6
  7
A3_1-100_
  0
ENDBLK
  5
26A
  8
0
  0
BLOCK
  8
0
  2
*U15
 70
     1
 10
0.0
 20
0.0
 30
0.0
  3
*U15
  1

  0
TEXT
  5
26C
  8
0
 10
33835.142106676023
 20
538.23617602999718
 30
0.0
 40
300.0
  1
7
  7
A3_1-100_
  0
ENDBLK
  5
26E
  8
0
  0
BLOCK
  8
0
  2
*U16
 70
     1
 10
0.0
 20
0.0
 30
0.0
  3
*U16
  1

  0
TEXT
  5
270
  8
0
 10
39018.664833948736
 20
538.23617602999718
 30
0.0
 40
300.0
  1
8
  7
A3_1-100_
  0
ENDBLK
  5
272
  8
0
  0
BLOCK
  8
0
  2
*U17
 70
     1
 10
0.0
 20
0.0
 30
0.0
  3
*U17
  1

  0
TEXT
  5
274
  8
0
 10
2768.096652130575
 20
28938.236176030001
 30
0.0
 40
300.0
  1
1
  7
A3_1-100_
  0
ENDBLK
  5
276
  8
0
  0
BLOCK
  8
0
  2
*U18
 70
     1
 10
0.0
 20
0.0
 30
0.0
  3
*U18
  1

  0
TEXT
  5
278
  8
0
 10
7966.9602884942033
 20
28938.236176030001
 30
0.0
 40
300.0
  1
2
  7
A3_1-100_
  0
ENDBLK
  5
27A
  8
0
  0
BLOCK
  8
0
  2
*U19
 70
     1
 10
0.0
 20
0.0
 30
0.0
  3
*U19
  1

  0
TEXT
  5
27C
  8
0
 10
13141.9602884942
 20
28938.236176030001
 30
0.0
 40
300.0
  1
3
  7
A3_1-100_
  0
ENDBLK
  5
27E
  8
0
  0
BLOCK
  8
0
  2
*U20
 70
     1
 10
0.0
 20
0.0
 30
0.0
  3
*U20
  1

  0
TEXT
  5
280
  8
0
 10
18323.778470312391
 20
28938.236176030001
 30
0.0
 40
300.0
  1
4
  7
A3_1-100_
  0
ENDBLK
  5
282
  8
0
  0
BLOCK
  8
0
  2
*U21
 70
     1
 10
0.0
 20
0.0
 30
0.0
  3
*U21
  1

  0
TEXT
  5
284
  8
0
 10
23491.9602884942
 20
28938.236176030001
 30
0.0
 40
300.0
  1
5
  7
A3_1-100_
  0
ENDBLK
  5
286
  8
0
  0
BLOCK
  8
0
  2
*U22
 70
     1
 10
0.0
 20
0.0
 30
0.0
  3
*U22
  1

  0
TEXT
  5
288
  8
0
 10
28665.255743039659
 20
28938.236176030001
 30
0.0
 40
300.0
  1
6
  7
A3_1-100_
  0
ENDBLK
  5
28A
  8
0
  0
BLOCK
  8
0
  2
*U23
 70
     1
 10
0.0
 20
0.0
 30
0.0
  3
*U23
  1

  0
TEXT
  5
28C
  8
0
 10
33835.142106676023
 20
28938.236176030001
 30
0.0
 40
300.0
  1
7
  7
A3_1-100_
  0
ENDBLK
  5
28E
  8
0
  0
BLOCK
  8
0
  2
*U24
 70
     1
 10
0.0
 20
0.0
 30
0.0
  3
*U24
  1

  0
TEXT
  5
290
  8
0
 10
39018.664833948751
 20
28938.236176030001
 30
0.0
 40
300.0
  1
8
  7
A3_1-100_
  0
ENDBLK
  5
292
  8
0
  0
BLOCK
  8
0
  2
*U25
 70
     1
 10
0.0
 20
0.0
 30
0.0
  3
*U25
  1

  0
TEXT
  5
294
  8
0
 10
521.31666872153755
 20
26849.958276780599
 30
0.0
 40
300.0
  1
A
  7
A3_1-100_
  0
ENDBLK
  5
296
  8
0
  0
BLOCK
  8
0
  2
*U26
 70
     1
 10
0.0
 20
0.0
 30
0.0
  3
*U26
  1

  0
TEXT
  5
298
  8
0
 10
497.45303235790129
 20
21999.958276780599
 30
0.0
 40
300.0
  1
B
  7
A3_1-100_
  0
ENDBLK
  5
29A
  8
0
  0
BLOCK
  8
0
  2
*U27
 70
     1
 10
0.0
 20
0.0
 30
0.0
  3
*U27
  1

  0
TEXT
  5
29C
  8
0
 10
502.56666872153761
 20
17149.958276780599
 30
0.0
 40
300.0
  1
C
  7
A3_1-100_
  0
ENDBLK
  5
29E
  8
0
  0
BLOCK
  8
0
  2
*U28
 70
     1
 10
0.0
 20
0.0
 30
0.0
  3
*U28
  1

  0
TEXT
  5
2A0
  8
0
 10
497.45303235790129
 20
12299.9582767806
 30
0.0
 40
300.0
  1
D
  7
A3_1-100_
  0
ENDBLK
  5
2A2
  8
0
  0
BLOCK
  8
0
  2
*U29
 70
     1
 10
0.0
 20
0.0
 30
0.0
  3
*U29
  1

  0
TEXT
  5
2A4
  8
0
 10
497.45303235790129
 20
7449.9582767805978
 30
0.0
 40
300.0
  1
E
  7
A3_1-100_
  0
ENDBLK
  5
2A6
  8
0
  0
BLOCK
  8
0
  2
*U30
 70
     1
 10
0.0
 20
0.0
 30
0.0
  3
*U30
  1

  0
TEXT
  5
2A8
  8
0
 10
492.33939599426492
 20
2599.9582767805991
 30
0.0
 40
300.0
  1
F
  7
A3_1-100_
  0
ENDBLK
  5
2AA
  8
0
  0
BLOCK
  8
0
  2
*U31
 70
     1
 10
0.0
 20
0.0
 30
0.0
  3
*U31
  1

  0
TEXT
  5
2AC
  8
0
 10
41221.316668721527
 20
26849.958276780599
 30
0.0
 40
300.0
  1
A
  7
A3_1-100_
  0
ENDBLK
  5
2AE
  8
0
  0
BLOCK
  8
0
  2
*U32
 70
     1
 10
0.0
 20
0.0
 30
0.0
  3
*U32
  1

  0
TEXT
  5
2B0
  8
0
 10
41197.453032357902
 20
21999.958276780599
 30
0.0
 40
300.0
  1
B
  7
A3_1-100_
  0
ENDBLK
  5
2B2
  8
0
  0
BLOCK
  8
0
  2
*U33
 70
     1
 10
0.0
 20
0.0
 30
0.0
  3
*U33
  1

  0
TEXT
  5
2B4
  8
0
 10
41202.566668721527
 20
17149.958276780599
 30
0.0
 40
300.0
  1
C
  7
A3_1-100_
  0
ENDBLK
  5
2B6
  8
0
  0
BLOCK
  8
0
  2
*U34
 70
     1
 10
0.0
 20
0.0
 30
0.0
  3
*U34
  1

  0
TEXT
  5
2B8
  8
0
 10
41197.453032357902
 20
12299.9582767806
 30
0.0
 40
300.0
  1
D
  7
A3_1-100_
  0
ENDBLK
  5
2BA
  8
0
  0
BLOCK
  8
0
  2
*U35
 70
     1
 10
0.0
 20
0.0
 30
0.0
  3
*U35
  1

  0
TEXT
  5
2BC
  8
0
 10
41197.453032357902
 20
7449.9582767805978
 30
0.0
 40
300.0
  1
E
  7
A3_1-100_
  0
ENDBLK
  5
2BE
  8
0
  0
BLOCK
  8
0
  2
*U36
 70
     1
 10
0.0
 20
0.0
 30
0.0
  3
*U36
  1

  0
TEXT
  5
2C0
  8
0
 10
41192.339395994262
 20
2599.9582767805991
 30
0.0
 40
300.0
  1
F
  7
A3_1-100_
  0
ENDBLK
  5
2C2
  8
0
  0
ENDSEC
  0
SECTION
  2
ENTITIES
  0
POLYLINE
  5
2D
  8
0
  6
DASHED2
 62
     9
 66
     1
 10
0.0
 20
0.0
 30
0.0
 70
     1
  0
VERTEX
  5
203
  8
0
  6
DASHED2
 62
     9
 10
0.0
 20
0.0
 30
0.0
  0
VERTEX
  5
204
  8
0
  6
DASHED2
 62
     9
 10
42000.0
 20
0.0
 30
0.0
  0
VERTEX
  5
205
  8
0
  6
DASHED2
 62
     9
 10
42000.0
 20
29700.0
 30
0.0
  0
VERTEX
  5
206
  8
0
  6
DASHED2
 62
     9
 10
0.0
 20
29700.0
 30
0.0
  0
SEQEND
  5
207
  8
0
  6
DASHED2
 62
     9
  0
LINE
  5
30
  8
図面枠
 10
999.99999999999977
 20
1000.0
 30
0.0
 11
41000.0
 21
1000.0
 31
0.0
  0
LINE
  5
31
  8
図面枠
 10
41000.0
 20
1000.0
 30
0.0
 11
41000.0
 21
28700.0
 31
0.0
  0
LINE
  5
32
  8
図面枠
 10
41000.0
 20
28700.0
 30
0.0
 11
1000.0
 21
28700.0
 31
0.0
  0
LINE
  5
33
  8
図面枠
 10
1000.0
 20
28700.0
 30
0.0
 11
999.99999999999977
 21
1000.0
 31
0.0
  0
POLYLINE
  5
156
  8
0
 66
     1
 10
0.0
 20
0.0
 30
0.0
 70
     1
  0
VERTEX
  5
24E
  8
0
 10
300.0
 20
300.0
 30
0.0
  0
VERTEX
  5
24F
  8
0
 10
41700.0
 20
300.0
 30
0.0
  0
VERTEX
  5
250
  8
0
 10
41700.0
 20
29400.0
 30
0.0
  0
VERTEX
  5
251
  8
0
 10
300.0
 20
29400.0
 30
0.0
  0
SEQEND
  5
252
  8
0
  0
LINE
  5
15C
  8
0
 10
20999.999999999989
 20
300.0
 30
0.0
 11
20999.999999999989
 21
1700.0
 31
0.0
  0
LINE
  5
15D
  8
0
 10
21000.0
 20
29400.0
 30
0.0
 11
21000.0
 21
28000.0
 31
0.0
  0
LINE
  5
15E
  8
0
 10
41700.0
 20
14850.0
 30
0.0
 11
40300.0
 21
14850.0
 31
0.0
  0
LINE
  5
15F
  8
0
 10
300.0
 20
14850.0
 30
0.0
 11
1700.0
 21
14850.0
 31
0.0
  0
LINE
  5
160
  8
0
 10
26174.999999999989
 20
300.0
 30
0.0
 11
26174.999999999989
 21
1000.0
 31
0.0
  0
LINE
  5
161
  8
0
 10
15824.999999999991
 20
300.00000000000068
 30
0.0
 11
15824.999999999991
 21
1000.0
 31
0.0
  0
LINE
  5
162
  8
0
 10
10649.999999999991
 20
300.00000000000068
 30
0.0
 11
10649.999999999991
 21
1000.0
 31
0.0
  0
LINE
  5
163
  8
0
 10
5474.9999999999927
 20
300.00000000000068
 30
0.0
 11
5474.9999999999927
 21
1000.0
 31
0.0
  0
LINE
  5
164
  8
0
 10
31349.999999999989
 20
300.0
 30
0.0
 11
31349.999999999989
 21
1000.0
 31
0.0
  0
LINE
  5
165
  8
0
 10
36524.999999999993
 20
300.0
 30
0.0
 11
36524.999999999993
 21
1000.0
 31
0.0
  0
LINE
  5
166
  8
0
 10
26175.0
 20
28700.0
 30
0.0
 11
26175.0
 21
29400.0
 31
0.0
  0
LINE
  5
167
  8
0
 10
31350.0
 20
28700.0
 30
0.0
 11
31350.0
 21
29400.0
 31
0.0
  0
LINE
  5
168
  8
0
 10
36525.0
 20
28700.0
 30
0.0
 11
36525.0
 21
29400.0
 31
0.0
  0
LINE
  5
169
  8
0
 10
15825.0
 20
28700.0
 30
0.0
 11
15825.0
 21
29400.0
 31
0.0
  0
LINE
  5
16A
  8
0
 10
10650.0
 20
28700.0
 30
0.0
 11
10650.0
 21
29400.0
 31
0.0
  0
LINE
  5
16B
  8
0
 10
5475.0
 20
28700.0
 30
0.0
 11
5475.0
 21
29400.0
 31
0.0
  0
LINE
  5
170
  8
0
 10
300.0
 20
19700.0
 30
0.0
 11
999.99999999999977
 21
19700.0
 31
0.0
  0
LINE
  5
171
  8
0
 10
300.0
 20
24550.0
 30
0.0
 11
999.99999999999977
 21
24550.0
 31
0.0
  0
LINE
  5
172
  8
0
 10
300.0
 20
10000.0
 30
0.0
 11
999.99999999999977
 21
10000.0
 31
0.0
  0
LINE
  5
173
  8
0
 10
300.0
 20
5150.0
 30
0.0
 11
999.99999999999977
 21
5150.0
 31
0.0
  0
LINE
  5
174
  8
0
 10
41000.0
 20
10000.0
 30
0.0
 11
41700.0
 21
10000.0
 31
0.0
  0
LINE
  5
175
  8
0
 10
41000.0
 20
5150.0
 30
0.0
 11
41700.0
 21
5150.0
 31
0.0
  0
LINE
  5
176
  8
0
 10
41000.0
 20
19700.0
 30
0.0
 11
41700.0
 21
19700.0
 31
0.0
  0
LINE
  5
177
  8
0
 10
41000.0
 20
24550.0
 30
0.0
 11
41700.0
 21
24550.0
 31
0.0
  0
INSERT
  5
179
  8
0
  2
*U9
 10
0.0
 20
0.0
 30
0.0
  0
INSERT
  5
17D
  8
0
  2
*U10
 10
0.0
 20
0.0
 30
0.0
  0
INSERT
  5
17E
  8
0
  2
*U11
 10
0.0
 20
0.0
 30
0.0
  0
INSERT
  5
17F
  8
0
  2
*U12
 10
0.0
 20
0.0
 30
0.0
  0
INSERT
  5
180
  8
0
  2
*U13
 10
0.0
 20
0.0
 30
0.0
  0
INSERT
  5
181
  8
0
  2
*U14
 10
0.0
 20
0.0
 30
0.0
  0
INSERT
  5
182
  8
0
  2
*U15
 10
0.0
 20
0.0
 30
0.0
  0
INSERT
  5
183
  8
0
  2
*U16
 10
0.0
 20
0.0
 30
0.0
  0
INSERT
  5
184
  8
0
  2
*U17
 10
0.0
 20
0.0
 30
0.0
  0
INSERT
  5
185
  8
0
  2
*U18
 10
0.0
 20
0.0
 30
0.0
  0
INSERT
  5
186
  8
0
  2
*U19
 10
0.0
 20
0.0
 30
0.0
  0
INSERT
  5
187
  8
0
  2
*U20
 10
0.0
 20
0.0
 30
0.0
  0
INSERT
  5
188
  8
0
  2
*U21
 10
0.0
 20
0.0
 30
0.0
  0
INSERT
  5
189
  8
0
  2
*U22
 10
0.0
 20
0.0
 30
0.0
  0
INSERT
  5
18A
  8
0
  2
*U23
 10
0.0
 20
0.0
 30
0.0
  0
INSERT
  5
18B
  8
0
  2
*U24
 10
0.0
 20
0.0
 30
0.0
  0
INSERT
  5
18D
  8
0
  2
*U25
 10
0.0
 20
0.0
 30
0.0
  0
INSERT
  5
18E
  8
0
  2
*U26
 10
0.0
 20
0.0
 30
0.0
  0
INSERT
  5
18F
  8
0
  2
*U27
 10
0.0
 20
0.0
 30
0.0
  0
INSERT
  5
190
  8
0
  2
*U28
 10
0.0
 20
0.0
 30
0.0
  0
INSERT
  5
191
  8
0
  2
*U29
 10
0.0
 20
0.0
 30
0.0
  0
INSERT
  5
192
  8
0
  2
*U30
 10
0.0
 20
0.0
 30
0.0
  0
INSERT
  5
193
  8
0
  2
*U31
 10
0.0
 20
0.0
 30
0.0
  0
INSERT
  5
194
  8
0
  2
*U32
 10
0.0
 20
0.0
 30
0.0
  0
INSERT
  5
195
  8
0
  2
*U33
 10
0.0
 20
0.0
 30
0.0
  0
INSERT
  5
196
  8
0
  2
*U34
 10
0.0
 20
0.0
 30
0.0
  0
INSERT
  5
197
  8
0
  2
*U35
 10
0.0
 20
0.0
 30
0.0
  0
INSERT
  5
198
  8
0
  2
*U36
 10
0.0
 20
0.0
 30
0.0
  0
ENDSEC
  0
EOF
