  0
SECTION
  2
HEADER
  9
$ACADVER
  1
AC1009
  9
$INSBASE
 10
0.0
 20
0.0
 30
0.0
  9
$EXTMIN
 10
991.8781003577169
 20
997.17451514775166
 30
-0.0015258207003583
  9
$EXTMAX
 10
41000.380549710942
 20
28701.06918254332
 30
0.0000000349246037
  9
$LIMMIN
 10
0.0
 20
0.0
  9
$LIMMAX
 10
42000.0
 20
29700.0
  9
$ORTHOMODE
 70
     0
  9
$REGENMODE
 70
     1
  9
$FILLMODE
 70
     1
  9
$QTEXTMODE
 70
     0
  9
$MIRRTEXT
 70
     0
  9
$DRAGMODE
 70
     2
  9
$LTSCALE
 40
1.0
  9
$OSMODE
 70
    37
  9
$ATTMODE
 70
     1
  9
$TEXTSIZE
 40
2.5
  9
$TRACEWID
 40
1.0
  9
$TEXTSTYLE
  7
STANDARD
  9
$CLAYER
  8
外枠
  9
$CELTYPE
  6
BYLAYER
  9
$CECOLOR
 62
   256
  9
$DIMSCALE
 40
100.0
  9
$DIMASZ
 40
3.0
  9
$DIMEXO
 40
2.0
  9
$DIMDLI
 40
3.75
  9
$DIMRND
 40
0.0
  9
$DIMDLE
 40
0.0
  9
$DIMEXE
 40
1.25
  9
$DIMTP
 40
0.0
  9
$DIMTM
 40
0.0
  9
$DIMTXT
 40
3.0
  9
$DIMCEN
 40
2.5
  9
$DIMTSZ
 40
0.0
  9
$DIMTOL
 70
     0
  9
$DIMLIM
 70
     0
  9
$DIMTIH
 70
     0
  9
$DIMTOH
 70
     0
  9
$DIMSE1
 70
     0
  9
$DIMSE2
 70
     0
  9
$DIMTAD
 70
     1
  9
$DIMZIN
 70
     8
  9
$DIMBLK
  1
DOTSMALL
  9
$DIMASO
 70
     1
  9
$DIMSHO
 70
     1
  9
$DIMPOST
  1

  9
$DIMAPOST
  1

  9
$DIMALT
 70
     0
  9
$DIMALTD
 70
     3
  9
$DIMALTF
 40
0.03937007874016
  9
$DIMLFAC
 40
1.0
  9
$DIMTOFL
 70
     1
  9
$DIMTVP
 40
0.0
  9
$DIMTIX
 70
     0
  9
$DIMSOXD
 70
     0
  9
$DIMSAH
 70
     0
  9
$DIMBLK1
  1

  9
$DIMBLK2
  1

  9
$DIMSTYLE
  2
S100寸法
  9
$DIMCLRD
 70
     0
  9
$DIMCLRE
 70
     0
  9
$DIMCLRT
 70
     0
  9
$DIMTFAC
 40
1.0
  9
$DIMGAP
 40
0.625
  9
$LUNITS
 70
     2
  9
$LUPREC
 70
     4
  9
$SKETCHINC
 40
1.0
  9
$FILLETRAD
 40
0.0
  9
$AUNITS
 70
     0
  9
$AUPREC
 70
     0
  9
$MENU
  1
.
  9
$ELEVATION
 40
0.0
  9
$PELEVATION
 40
0.0
  9
$THICKNESS
 40
0.0
  9
$LIMCHECK
 70
     0
  9
$BLIPMODE
 70
     0
  9
$CHAMFERA
 40
0.0
  9
$CHAMFERB
 40
0.0
  9
$SKPOLY
 70
     0
  9
$TDCREATE
 40
2456354.4256747798
  9
$TDUPDATE
 40
2456354.4551643641
  9
$TDINDWG
 40
0.0294915741
  9
$TDUSRTIMER
 40
0.0294915741
  9
$USRTIMER
 70
     1
  9
$ANGBASE
 50
0.0
  9
$ANGDIR
 70
     0
  9
$PDMODE
 70
     0
  9
$PDSIZE
 40
0.0
  9
$PLINEWID
 40
0.0
  9
$COORDS
 70
     1
  9
$SPLFRAME
 70
     0
  9
$SPLINETYPE
 70
     6
  9
$SPLINESEGS
 70
     8
  9
$ATTDIA
 70
     0
  9
$ATTREQ
 70
     1
  9
$HANDLING
 70
     1
  9
$HANDSEED
  5
3A9
  9
$SURFTAB1
 70
     6
  9
$SURFTAB2
 70
     6
  9
$SURFTYPE
 70
     6
  9
$SURFU
 70
     6
  9
$SURFV
 70
     6
  9
$UCSNAME
  2

  9
$UCSORG
 10
0.0
 20
0.0
 30
0.0
  9
$UCSXDIR
 10
1.0
 20
0.0
 30
0.0
  9
$UCSYDIR
 10
0.0
 20
1.0
 30
0.0
  9
$PUCSNAME
  2

  9
$PUCSORG
 10
0.0
 20
0.0
 30
0.0
  9
$PUCSXDIR
 10
1.0
 20
0.0
 30
0.0
  9
$PUCSYDIR
 10
0.0
 20
1.0
 30
0.0
  9
$USERI1
 70
     0
  9
$USERI2
 70
     0
  9
$USERI3
 70
     0
  9
$USERI4
 70
     0
  9
$USERI5
 70
     0
  9
$USERR1
 40
0.0
  9
$USERR2
 40
0.0
  9
$USERR3
 40
0.0
  9
$USERR4
 40
0.0
  9
$USERR5
 40
0.0
  9
$WORLDVIEW
 70
     1
  9
$SHADEDGE
 70
     3
  9
$SHADEDIF
 70
    70
  9
$TILEMODE
 70
     1
  9
$MAXACTVP
 70
    64
  9
$PLIMCHECK
 70
     0
  9
$PEXTMIN
 10
0.0
 20
0.0
 30
0.0
  9
$PEXTMAX
 10
0.0
 20
0.0
 30
0.0
  9
$PLIMMIN
 10
0.0
 20
0.0
  9
$PLIMMAX
 10
12.0
 20
9.0
  9
$UNITMODE
 70
     0
  9
$VISRETAIN
 70
     1
  9
$PLINEGEN
 70
     0
  9
$PSLTSCALE
 70
     1
  0
ENDSEC
  0
SECTION
  2
TABLES
  0
TABLE
  2
VPORT
 70
     1
  0
VPORT
  2
*ACTIVE
 70
     0
 10
0.0
 20
0.0
 11
1.0
 21
1.0
 12
20996.128914079942
 22
14849.121655310501
 13
0.0
 23
0.0
 14
10.0
 24
10.0
 15
10.0
 25
10.0
 16
0.0
 26
0.0
 36
1.0
 17
0.0
 27
0.0
 37
0.0
 40
29875.662685669959
 41
1.827225130890052
 42
50.0
 43
0.0
 44
0.0
 50
0.0
 51
0.0
 71
     0
 72
  1000
 73
     1
 74
     3
 75
     0
 76
     0
 77
     0
 78
     0
  0
ENDTAB
  0
TABLE
  2
LTYPE
 70
     4
  0
LTYPE
  2
CONTINUOUS
 70
     0
  3
Solid line
 72
    65
 73
     0
 40
0.0
  0
LTYPE
  2
DASHED2
 70
     0
  3
Dashed (.5x) _ _ _ _ _ _ _ _ _ _ _ _ _ _ _ _ _
 72
    65
 73
     2
 40
9.5249999999999986
 49
6.3499999999999988
 49
-3.1749999999999989
  0
ENDTAB
  0
TABLE
  2
LAYER
 70
     4
  0
LAYER
  2
0
 70
     0
 62
     7
  6
CONTINUOUS
  0
LAYER
  2
外枠
 70
     0
 62
     7
  6
CONTINUOUS
  0
LAYER
  2
タイトル
 70
     0
 62
     7
  6
CONTINUOUS
  0
LAYER
  2
DEFPOINTS
 70
     0
 62
     7
  6
CONTINUOUS
  0
ENDTAB
  0
TABLE
  2
STYLE
 70
     4
  0
STYLE
  2
STANDARD
 70
     0
 40
0.0
 41
1.0
 50
0.0
 71
     0
 42
2.5
  3
txt
  4

  0
STYLE
  2
ANNOTATIVE
 70
     0
 40
0.0
 41
1.0
 50
0.0
 71
     0
 42
2.5
  3
txt
  4

  0
STYLE
  2

 70
     1
 40
0.0
 41
1.0
 50
0.0
 71
     0
 42
2.5
  3
ltypeshp.shx
  4

  0
STYLE
  2
S100文字
 70
     0
 40
400.0
 41
1.0
 50
0.0
 71
     0
 42
400.0
  3
txt
  4

  0
ENDTAB
  0
TABLE
  2
VIEW
 70
     0
  0
ENDTAB
  0
TABLE
  2
UCS
 70
     0
  0
ENDTAB
  0
TABLE
  2
APPID
 70
    11
  0
APPID
  2
ACAD
 70
     0
  0
APPID
  2
ACAD_PSEXT
 70
     0
  0
APPID
  2
ACADANNOPO
 70
     0
  0
APPID
  2
ACADANNOTATIVE
 70
     0
  0
APPID
  2
ACAD_DSTYLE_DIMJAG
 70
     0
  0
APPID
  2
ACAD_DSTYLE_DIMTALN
 70
     0
  0
APPID
  2
ACAD_MLEADERVER
 70
     0
  0
APPID
  2
ACAD_NAV_VCDISPLAY
 70
     0
  0
APPID
  2
ACAD_EXEMPT_FROM_CAD_STANDARDS
 70
     0
  0
APPID
  2
ACAECLAYERSTANDARD
 70
     0
  0
APPID
  2
ACCMTRANSPARENCY
 70
     0
  0
ENDTAB
  0
TABLE
  2
DIMSTYLE
 70
     4
  0
DIMSTYLE
  2
STANDARD
 70
     0
  3

  4

  5

  6

  7

 40
1.0
 41
0.18
 42
0.0625
 43
0.38
 44
0.18
 45
0.0
 46
0.0
 47
0.0
 48
0.0
140
0.18
141
0.09
142
0.0
143
25.399999999999999
144
1.0
145
0.0
146
1.0
147
0.09
 71
     0
 72
     0
 73
     1
 74
     1
 75
     0
 76
     0
 77
     0
 78
     0
170
     0
171
     2
172
     0
173
     0
174
     0
175
     0
176
     0
177
     0
178
     0
  0
DIMSTYLE
  2
ANNOTATIVE
 70
     0
  3

  4

  5

  6

  7

 40
0.0
 41
2.5
 42
0.625
 43
3.75
 44
1.25
 45
0.0
 46
0.0
 47
0.0
 48
0.0
140
2.5
141
2.5
142
0.0
143
0.03937007874016
144
1.0
145
0.0
146
1.0
147
0.625
 71
     0
 72
     0
 73
     0
 74
     0
 75
     0
 76
     0
 77
     1
 78
     8
170
     0
171
     3
172
     1
173
     0
174
     0
175
     0
176
     0
177
     0
178
     0
  0
DIMSTYLE
  2
S100寸法
 70
     0
  3

  4

  5
DOTSMALL
  6

  7

 40
100.0
 41
3.0
 42
2.0
 43
3.75
 44
1.25
 45
0.0
 46
0.0
 47
0.0
 48
0.0
140
3.0
141
2.5
142
0.0
143
0.03937007874016
144
1.0
145
0.0
146
1.0
147
0.625
 71
     0
 72
     0
 73
     0
 74
     0
 75
     0
 76
     0
 77
     1
 78
     8
170
     0
171
     3
172
     1
173
     0
174
     0
175
     0
176
     0
177
     0
178
     0
  0
ENDTAB
  0
ENDSEC
  0
SECTION
  2
BLOCKS
  0
BLOCK
  8
0
  2
$MODEL_SPACE
 70
     0
 10
0.0
 20
0.0
 30
0.0
  3
$MODEL_SPACE
  1

  0
ENDBLK
  5
21
  8
0
  0
BLOCK
 67
     1
  8
0
  2
$PAPER_SPACE
 70
     0
 10
0.0
 20
0.0
 30
0.0
  3
$PAPER_SPACE
  1

  0
ENDBLK
  5
D5
 67
     1
  8
0
  0
BLOCK
  8
0
  2
_DOTSMALL
 70
     0
 10
0.0
 20
0.0
 30
0.0
  3
_DOTSMALL
  1

  0
POLYLINE
  5
29C
  8
0
  6
BYBLOCK
 62
     0
 66
     1
 10
0.0
 20
0.0
 30
0.0
 70
     1
 40
0.5
 41
0.5
  0
VERTEX
  5
39E
  8
0
  6
BYBLOCK
 62
     0
 10
-0.0625
 20
0.0
 30
0.0
 42
1.0
  0
VERTEX
  5
39F
  8
0
  6
BYBLOCK
 62
     0
 10
0.0625
 20
0.0
 30
0.0
 42
1.0
  0
SEQEND
  5
3A0
  8
0
  6
BYBLOCK
 62
     0
  0
ENDBLK
  5
29E
  8
0
  0
BLOCK
  8
0
  2
*D3
 70
     1
 10
0.0
 20
0.0
 30
0.0
  3
*D3
  1

  0
LINE
  5
2AE
  8
外枠
 62
     0
 10
7712.8073137958854
 20
19703.932787357018
 30
0.0
 11
7712.8073137958854
 21
20749.20070304408
 31
0.0
  0
LINE
  5
2AF
  8
外枠
 62
     0
 10
16451.475591087259
 20
19703.932787357018
 30
0.0
 11
16451.475591087259
 21
20749.20070304408
 31
0.0
  0
LINE
  5
2B0
  8
外枠
 62
     0
 10
7712.8073137958854
 20
20624.20070304408
 30
0.0
 11
16451.475591087259
 21
20624.20070304408
 31
0.0
  0
INSERT
  5
2B1
  8
外枠
 62
     0
  2
_DOTSMALL
 10
7712.8073137958854
 20
20624.20070304408
 30
0.0
 41
300.0
 42
300.0
 43
300.0
 50
180.0
  0
INSERT
  5
2B2
  8
外枠
 62
     0
  2
_DOTSMALL
 10
16451.475591087259
 20
20624.20070304408
 30
0.0
 41
300.0
 42
300.0
 43
300.0
  0
INSERT
  5
2B3
  8
外枠
  2
*U13
 10
0.0
 20
0.0
 30
0.0
  0
POINT
  5
2B4
  8
DEFPOINTS
 62
     0
 10
7712.8073137958854
 20
19503.932787357018
 30
0.0
  0
POINT
  5
2B5
  8
DEFPOINTS
 62
     0
 10
16451.475591087259
 20
19503.932787357018
 30
0.0
  0
POINT
  5
2B6
  8
DEFPOINTS
 62
     0
 10
16451.475591087259
 20
20624.20070304408
 30
0.0
  0
ENDBLK
  5
2A3
  8
0
  0
BLOCK
  8
0
  2
*D4
 70
     1
 10
0.0
 20
0.0
 30
0.0
  3
*D4
  1

  0
LINE
  5
2C6
  8
外枠
 62
     0
 10
16651.475591087259
 20
12556.833050205039
 30
0.0
 11
17664.88502418085
 21
12556.833050205039
 31
0.0
  0
LINE
  5
2C7
  8
外枠
 62
     0
 10
16651.475591087259
 20
19503.932787357018
 30
0.0
 11
17664.88502418085
 21
19503.932787357018
 31
0.0
  0
LINE
  5
2C8
  8
外枠
 62
     0
 10
17539.88502418085
 20
12556.833050205039
 30
0.0
 11
17539.88502418085
 21
19503.932787357018
 31
0.0
  0
INSERT
  5
2C9
  8
外枠
 62
     0
  2
_DOTSMALL
 10
17539.88502418085
 20
12556.833050205039
 30
0.0
 41
300.0
 42
300.0
 43
300.0
 50
270.0
  0
INSERT
  5
2CA
  8
外枠
 62
     0
  2
_DOTSMALL
 10
17539.88502418085
 20
19503.932787357018
 30
0.0
 41
300.0
 42
300.0
 43
300.0
 50
90.0
  0
INSERT
  5
2CB
  8
外枠
  2
*U14
 10
0.0
 20
0.0
 30
0.0
  0
POINT
  5
2CC
  8
DEFPOINTS
 62
     0
 10
16451.475591087259
 20
12556.833050205039
 30
0.0
  0
POINT
  5
2CD
  8
DEFPOINTS
 62
     0
 10
16451.475591087259
 20
19503.932787357018
 30
0.0
  0
POINT
  5
2CE
  8
DEFPOINTS
 62
     0
 10
17539.88502418085
 20
19503.932787357018
 30
0.0
  0
ENDBLK
  5
2BB
  8
0
  0
BLOCK
  8
0
  2
*U5
 70
     1
 10
0.0
 20
0.0
 30
0.0
  3
*U5
  1

  0
TEXT
  5
37F
  8
外枠
 10
35006.818181818177
 20
22179.545454545449
 30
0.0
 40
400.0
  1
名称：
  7
S100文字
  0
ENDBLK
  5
381
  8
0
  0
BLOCK
  8
0
  2
*U6
 70
     1
 10
0.0
 20
0.0
 30
0.0
  3
*U6
  1

  0
TEXT
  5
383
  8
外枠
 10
34990.909090909088
 20
20184.090909090912
 30
0.0
 40
400.0
  1
図面名：
  7
S100文字
  0
ENDBLK
  5
385
  8
0
  0
BLOCK
  8
0
  2
*U7
 70
     1
 10
0.0
 20
0.0
 30
0.0
  3
*U7
  1

  0
TEXT
  5
387
  8
外枠
 10
35006.818181818177
 20
18181.818181818169
 30
0.0
 40
400.0
  1
年月日：
  7
S100文字
  0
ENDBLK
  5
389
  8
0
  0
BLOCK
  8
0
  2
*U8
 70
     1
 10
0.0
 20
0.0
 30
0.0
  3
*U8
  1

  0
TEXT
  5
38B
  8
外枠
 10
35029.545454545463
 20
16174.999999999991
 30
0.0
 40
400.0
  1
縮尺：
  7
S100文字
  0
ENDBLK
  5
38D
  8
0
  0
BLOCK
  8
0
  2
*U9
 70
     1
 10
0.0
 20
0.0
 30
0.0
  3
*U9
  1

  0
TEXT
  5
38F
  8
外枠
 10
37990.909090909088
 20
16188.63636363636
 30
0.0
 40
400.0
  1
図面番号：
  7
S100文字
  0
ENDBLK
  5
391
  8
0
  0
BLOCK
  8
0
  2
*U10
 70
     1
 10
0.0
 20
0.0
 30
0.0
  3
*U10
  1

  0
TEXT
  5
393
  8
外枠
 10
35020.454545454537
 20
14179.54545454545
 30
0.0
 40
400.0
  1
特記：
  7
S100文字
  0
ENDBLK
  5
395
  8
0
  0
BLOCK
  8
0
  2
*U11
 70
     1
 10
0.0
 20
0.0
 30
0.0
  3
*U11
  1

  0
TEXT
  5
397
  8
外枠
 10
35020.454545454537
 20
8177.2727272727243
 30
0.0
 40
400.0
  1
作成：
  7
S100文字
  0
ENDBLK
  5
399
  8
0
  0
BLOCK
  8
0
  2
*U12
 70
     1
 10
0.0
 20
0.0
 30
0.0
  3
*U12
  1

  0
TEXT
  5
39B
  8
外枠
 10
35029.545454545463
 20
6174.9999999999973
 30
0.0
 40
400.0
  1
修正：
  7
S100文字
  0
ENDBLK
  5
39D
  8
0
  0
BLOCK
  8
0
  2
*U13
 70
     1
 10
0.0
 20
0.0
 30
0.0
  3
*U13
  1

  0
TEXT
  5
3A2
  8
外枠
 62
     0
 10
11647.48236153248
 20
20686.70070304408
 30
0.0
 40
300.0
  1
8739
  0
ENDBLK
  5
3A4
  8
0
  0
BLOCK
  8
0
  2
*U14
 70
     1
 10
0.0
 20
0.0
 30
0.0
  3
*U14
  1

  0
TEXT
  5
3A6
  8
外枠
 62
     0
 10
17477.38502418085
 20
15595.72382787194
 30
0.0
 40
300.0
  1
6947
 50
90.0
  0
ENDBLK
  5
3A8
  8
0
  0
ENDSEC
  0
SECTION
  2
ENTITIES
  0
POLYLINE
  5
237
  8
外枠
 66
     1
 10
0.0
 20
0.0
 30
0.0
 70
     1
  0
VERTEX
  5
379
  8
外枠
 10
999.99999999999977
 20
1000.0
 30
0.0
  0
VERTEX
  5
37A
  8
外枠
 10
41000.0
 20
1000.0
 30
0.0
  0
VERTEX
  5
37B
  8
外枠
 10
41000.0
 20
28700.0
 30
0.0
  0
VERTEX
  5
37C
  8
外枠
 10
1000.0
 20
28700.0
 30
0.0
  0
SEQEND
  5
37D
  8
外枠
  0
LINE
  5
23E
  8
外枠
 10
35000.0
 20
1000.0
 30
0.0
 11
35000.0
 21
28700.0
 31
0.0
  0
LINE
  5
240
  8
外枠
 10
41000.0
 20
22700.0
 30
0.0
 11
35000.0
 21
22700.0
 31
0.0
  0
LINE
  5
241
  8
外枠
 10
41000.0
 20
20700.0
 30
0.0
 11
35000.0
 21
20700.0
 31
0.0
  0
INSERT
  5
24B
  8
外枠
  2
*U5
 10
0.0
 20
0.0
 30
0.0
  0
LINE
  5
24C
  8
外枠
 10
41000.0
 20
18699.999999999989
 30
0.0
 11
35000.0
 21
18699.999999999989
 31
0.0
  0
INSERT
  5
24D
  8
外枠
  2
*U6
 10
0.0
 20
0.0
 30
0.0
  0
LINE
  5
24E
  8
外枠
 10
41000.0
 20
16699.999999999989
 30
0.0
 11
35000.0
 21
16699.999999999989
 31
0.0
  0
INSERT
  5
24F
  8
外枠
  2
*U7
 10
0.0
 20
0.0
 30
0.0
  0
LINE
  5
250
  8
外枠
 10
41000.0
 20
14699.999999999991
 30
0.0
 11
35000.0
 21
14699.999999999991
 31
0.0
  0
INSERT
  5
251
  8
外枠
  2
*U8
 10
0.0
 20
0.0
 30
0.0
  0
LINE
  5
252
  8
外枠
 10
38000.0
 20
14699.999999999991
 30
0.0
 11
38000.0
 21
16699.999999999989
 31
0.0
  0
INSERT
  5
253
  8
外枠
  2
*U9
 10
0.0
 20
0.0
 30
0.0
  0
LINE
  5
254
  8
外枠
 10
41000.0
 20
8699.9999999999964
 30
0.0
 11
35000.0
 21
8699.9999999999964
 31
0.0
  0
INSERT
  5
255
  8
外枠
  2
*U10
 10
0.0
 20
0.0
 30
0.0
  0
LINE
  5
256
  8
0
  6
DASHED2
 10
41000.0
 20
13699.999999999991
 30
0.0
 11
35000.0
 21
13699.999999999991
 31
0.0
  0
LINE
  5
258
  8
0
  6
DASHED2
 10
41000.0
 20
12700.0
 30
0.0
 11
35000.0
 21
12700.0
 31
0.0
  0
LINE
  5
259
  8
0
  6
DASHED2
 10
41000.0
 20
11699.999999999991
 30
0.0
 11
35000.0
 21
11699.999999999991
 31
0.0
  0
LINE
  5
25A
  8
0
  6
DASHED2
 10
41000.0
 20
10699.999999999991
 30
0.0
 11
35000.0
 21
10699.999999999991
 31
0.0
  0
LINE
  5
25B
  8
0
  6
DASHED2
 10
41000.0
 20
9699.9999999999964
 30
0.0
 11
35000.0
 21
9699.9999999999964
 31
0.0
  0
INSERT
  5
25C
  8
外枠
  2
*U11
 10
0.0
 20
0.0
 30
0.0
  0
LINE
  5
25D
  8
外枠
 10
41000.0
 20
6699.9999999999973
 30
0.0
 11
35000.0
 21
6699.9999999999973
 31
0.0
  0
LINE
  5
25E
  8
外枠
 10
41000.0
 20
4699.9999999999964
 30
0.0
 11
35000.0
 21
4699.9999999999964
 31
0.0
  0
INSERT
  5
25F
  8
外枠
  2
*U12
 10
0.0
 20
0.0
 30
0.0
  0
ENDSEC
  0
EOF
