  0
SECTION
  2
HEADER
  9
$ACADVER
  1
AC1009
  9
$INSBASE
 10
0.0
 20
0.0
 30
0.0
  9
$EXTMIN
 10
1991.4453987369779
 20
1598.639570539264
 30
-0.0000000000000058
  9
$EXTMAX
 10
81812.161814368315
 20
58038.593790090963
 30
0.0000000000000104
  9
$LIMMIN
 10
0.0
 20
0.0
  9
$LIMMAX
 10
84000.0
 20
59400.0
  9
$ORTHOMODE
 70
     0
  9
$REGENMODE
 70
     1
  9
$FILLMODE
 70
     1
  9
$QTEXTMODE
 70
     0
  9
$MIRRTEXT
 70
     0
  9
$DRAGMODE
 70
     2
  9
$LTSCALE
 40
1.0
  9
$OSMODE
 70
    37
  9
$ATTMODE
 70
     1
  9
$TEXTSIZE
 40
800.0
  9
$TRACEWID
 40
1.0
  9
$TEXTSTYLE
  7
A3_1-200_
  9
$CLAYER
  8
0
  9
$CELTYPE
  6
BYLAYER
  9
$CECOLOR
 62
   256
  9
$DIMSCALE
 40
200.0
  9
$DIMASZ
 40
2.5
  9
$DIMEXO
 40
5.0
  9
$DIMDLI
 40
3.75
  9
$DIMRND
 40
0.0
  9
$DIMDLE
 40
0.0
  9
$DIMEXE
 40
1.25
  9
$DIMTP
 40
0.0
  9
$DIMTM
 40
0.0
  9
$DIMTXT
 40
800.0
  9
$DIMCEN
 40
2.5
  9
$DIMTSZ
 40
0.0
  9
$DIMTOL
 70
     0
  9
$DIMLIM
 70
     0
  9
$DIMTIH
 70
     0
  9
$DIMTOH
 70
     0
  9
$DIMSE1
 70
     0
  9
$DIMSE2
 70
     0
  9
$DIMTAD
 70
     1
  9
$DIMZIN
 70
     8
  9
$DIMBLK
  1
DOTSMALL
  9
$DIMASO
 70
     1
  9
$DIMSHO
 70
     1
  9
$DIMPOST
  1

  9
$DIMAPOST
  1

  9
$DIMALT
 70
     0
  9
$DIMALTD
 70
     3
  9
$DIMALTF
 40
0.03937007874016
  9
$DIMLFAC
 40
1.0
  9
$DIMTOFL
 70
     1
  9
$DIMTVP
 40
0.0
  9
$DIMTIX
 70
     0
  9
$DIMSOXD
 70
     0
  9
$DIMSAH
 70
     0
  9
$DIMBLK1
  1

  9
$DIMBLK2
  1

  9
$DIMSTYLE
  2
A3-200
  9
$DIMCLRD
 70
     0
  9
$DIMCLRE
 70
     0
  9
$DIMCLRT
 70
     0
  9
$DIMTFAC
 40
1.0
  9
$DIMGAP
 40
0.625
  9
$LUNITS
 70
     2
  9
$LUPREC
 70
     0
  9
$SKETCHINC
 40
1.0
  9
$FILLETRAD
 40
500.0
  9
$AUNITS
 70
     0
  9
$AUPREC
 70
     0
  9
$MENU
  1
.
  9
$ELEVATION
 40
0.0
  9
$PELEVATION
 40
0.0
  9
$THICKNESS
 40
0.0
  9
$LIMCHECK
 70
     0
  9
$BLIPMODE
 70
     0
  9
$CHAMFERA
 40
0.0
  9
$CHAMFERB
 40
0.0
  9
$SKPOLY
 70
     0
  9
$TDCREATE
 40
2454992.5567386341
  9
$TDUPDATE
 40
2456249.8547196179
  9
$TDINDWG
 40
0.074485544
  9
$TDUSRTIMER
 40
0.074485
  9
$USRTIMER
 70
     1
  9
$ANGBASE
 50
90.0
  9
$ANGDIR
 70
     1
  9
$PDMODE
 70
     0
  9
$PDSIZE
 40
0.0
  9
$PLINEWID
 40
0.0
  9
$COORDS
 70
     1
  9
$SPLFRAME
 70
     0
  9
$SPLINETYPE
 70
     6
  9
$SPLINESEGS
 70
     8
  9
$ATTDIA
 70
     0
  9
$ATTREQ
 70
     1
  9
$HANDLING
 70
     1
  9
$HANDSEED
  5
452
  9
$SURFTAB1
 70
     6
  9
$SURFTAB2
 70
     6
  9
$SURFTYPE
 70
     6
  9
$SURFU
 70
     6
  9
$SURFV
 70
     6
  9
$UCSNAME
  2

  9
$UCSORG
 10
0.0
 20
0.0
 30
0.0
  9
$UCSXDIR
 10
1.0
 20
0.0
 30
0.0
  9
$UCSYDIR
 10
0.0
 20
1.0
 30
0.0
  9
$PUCSNAME
  2

  9
$PUCSORG
 10
0.0
 20
0.0
 30
0.0
  9
$PUCSXDIR
 10
1.0
 20
0.0
 30
0.0
  9
$PUCSYDIR
 10
0.0
 20
1.0
 30
0.0
  9
$USERI1
 70
     0
  9
$USERI2
 70
     0
  9
$USERI3
 70
     0
  9
$USERI4
 70
     0
  9
$USERI5
 70
     0
  9
$USERR1
 40
0.0
  9
$USERR2
 40
0.0
  9
$USERR3
 40
0.0
  9
$USERR4
 40
0.0
  9
$USERR5
 40
0.0
  9
$WORLDVIEW
 70
     1
  9
$SHADEDGE
 70
     3
  9
$SHADEDIF
 70
    70
  9
$TILEMODE
 70
     1
  9
$MAXACTVP
 70
    64
  9
$PLIMCHECK
 70
     0
  9
$PEXTMIN
 10
1.0000000000000000E+020
 20
1.0000000000000000E+020
 30
1.0000000000000000E+020
  9
$PEXTMAX
 10
-1.0000000000000000E+020
 20
-1.0000000000000000E+020
 30
-1.0000000000000000E+020
  9
$PLIMMIN
 10
0.0
 20
0.0
  9
$PLIMMAX
 10
420.0
 20
297.0
  9
$UNITMODE
 70
     0
  9
$VISRETAIN
 70
     1
  9
$PLINEGEN
 70
     0
  9
$PSLTSCALE
 70
     1
  0
ENDSEC
  0
SECTION
  2
TABLES
  0
TABLE
  2
VPORT
 70
     1
  0
VPORT
  2
*ACTIVE
 70
     0
 10
0.0
 20
0.0
 11
1.0
 21
1.0
 12
43978.17198367056
 22
27585.00213026577
 13
0.0
 23
0.0
 14
10.0
 24
10.0
 15
10.0
 25
10.0
 16
0.0
 26
0.0
 36
1.0
 17
0.0
 27
0.0
 37
0.0
 40
76634.164818405319
 41
1.7003654080389761
 42
50.0
 43
0.0
 44
0.0
 50
0.0
 51
0.0
 71
     0
 72
  1000
 73
     1
 74
     3
 75
     0
 76
     1
 77
     0
 78
     0
  0
ENDTAB
  0
TABLE
  2
LTYPE
 70
     1
  0
LTYPE
  2
CONTINUOUS
 70
     0
  3
Solid line
 72
    65
 73
     0
 40
0.0
  0
ENDTAB
  0
TABLE
  2
LAYER
 70
     2
  0
LAYER
  2
0
 70
     0
 62
     7
  6
CONTINUOUS
  0
LAYER
  2
DEFPOINTS
 70
     0
 62
     7
  6
CONTINUOUS
  0
ENDTAB
  0
TABLE
  2
STYLE
 70
     5
  0
STYLE
  2
STANDARD
 70
     0
 40
200.0
 41
1.0
 50
0.0
 71
     0
 42
200.0
  3
txt.shx
  4

  0
STYLE
  2
A3_1-100_
 70
     0
 40
200.0
 41
1.0
 50
0.0
 71
     0
 42
200.0
  3
txt
  4

  0
STYLE
  2
A3_1-200_
 70
     0
 40
800.0
 41
1.0
 50
0.0
 71
     0
 42
800.0
  3
txt
  4

  0
ENDTAB
  0
TABLE
  2
VIEW
 70
     0
  0
ENDTAB
  0
TABLE
  2
UCS
 70
     0
  0
ENDTAB
  0
TABLE
  2
APPID
 70
     9
  0
APPID
  2
ACAD
 70
     0
  0
APPID
  2
ACADANNOPO
 70
     0
  0
APPID
  2
ACAD_DSTYLE_DIMJAG
 70
     0
  0
APPID
  2
ACAD_DSTYLE_DIMTALN
 70
     0
  0
APPID
  2
ACAD_EXEMPT_FROM_CAD_STANDARDS
 70
     0
  0
APPID
  2
ACAD_PSEXT
 70
     0
  0
APPID
  2
ACAD_NAV_VCDISPLAY
 70
     0
  0
APPID
  2
ACAD_DSTYLE_DIMBREAK
 70
     0
  0
APPID
  2
ACAD_MLEADERVER
 70
     0
  0
ENDTAB
  0
TABLE
  2
DIMSTYLE
 70
     5
  0
DIMSTYLE
  2
ISO-25
 70
     0
  3

  4

  5

  6

  7

 40
1.0
 41
2.5
 42
0.625
 43
3.75
 44
1.25
 45
0.0
 46
0.0
 47
0.0
 48
0.0
140
2.5
141
2.5
142
0.0
143
0.03937007874016
144
1.0
145
0.0
146
1.0
147
0.625
 71
     0
 72
     0
 73
     0
 74
     0
 75
     0
 76
     0
 77
     1
 78
     8
170
     0
171
     3
172
     1
173
     0
174
     0
175
     0
176
     0
177
     0
178
     0
  0
DIMSTYLE
  2
A3-100
 70
     0
  3

  4

  5
DOTSMALL
  6

  7

 40
100.0
 41
2.5
 42
5.0
 43
3.75
 44
1.25
 45
0.0
 46
0.0
 47
0.0
 48
0.0
140
200.0
141
2.5
142
0.0
143
0.03937007874016
144
1.0
145
0.0
146
1.0
147
0.625
 71
     0
 72
     0
 73
     0
 74
     0
 75
     0
 76
     0
 77
     1
 78
     8
170
     0
171
     3
172
     1
173
     0
174
     0
175
     0
176
     0
177
     0
178
     0
  0
DIMSTYLE
  2
A3-200
 70
     0
  3

  4

  5
DOTSMALL
  6

  7

 40
200.0
 41
2.5
 42
5.0
 43
3.75
 44
1.25
 45
0.0
 46
0.0
 47
0.0
 48
0.0
140
800.0
141
2.5
142
0.0
143
0.03937007874016
144
1.0
145
0.0
146
1.0
147
0.625
 71
     0
 72
     0
 73
     0
 74
     0
 75
     0
 76
     0
 77
     1
 78
     8
170
     0
171
     3
172
     1
173
     0
174
     0
175
     0
176
     0
177
     0
178
     0
  0
ENDTAB
  0
ENDSEC
  0
SECTION
  2
BLOCKS
  0
BLOCK
  8
0
  2
$MODEL_SPACE
 70
     0
 10
0.0
 20
0.0
 30
0.0
  3
$MODEL_SPACE
  1

  0
ENDBLK
  5
23
  8
0
  0
BLOCK
 67
     1
  8
0
  2
$PAPER_SPACE
 70
     0
 10
0.0
 20
0.0
 30
0.0
  3
$PAPER_SPACE
  1

  0
ENDBLK
  5
1F
 67
     1
  8
0
  0
BLOCK
  8
0
  2
_DOTSMALL
 70
     0
 10
0.0
 20
0.0
 30
0.0
  3
_DOTSMALL
  1

  0
POLYLINE
  5
60
  8
0
  6
BYBLOCK
 62
     0
 66
     1
 10
0.0
 20
0.0
 30
0.0
 70
     1
 40
0.5
 41
0.5
  0
VERTEX
  5
39B
  8
0
  6
BYBLOCK
 62
     0
 10
-0.0625
 20
0.0
 30
0.0
 42
1.0
  0
VERTEX
  5
39C
  8
0
  6
BYBLOCK
 62
     0
 10
0.0625
 20
0.0
 30
0.0
 42
1.0
  0
SEQEND
  5
39D
  8
0
  6
BYBLOCK
 62
     0
  0
ENDBLK
  5
62
  8
0
  0
BLOCK
  8
0
  2
_CLOSED
 70
     0
 10
0.0
 20
0.0
 30
0.0
  3
_CLOSED
  1

  0
LINE
  5
E1
  8
0
  6
BYBLOCK
 62
     0
 10
-1.0
 20
0.1666666666666666
 30
0.0
 11
0.0
 21
0.0
 31
0.0
  0
LINE
  5
E2
  8
0
  6
BYBLOCK
 62
     0
 10
0.0
 20
0.0
 30
0.0
 11
-1.0
 21
-0.1666666666666666
 31
0.0
  0
LINE
  5
E3
  8
0
  6
BYBLOCK
 62
     0
 10
-1.0
 20
0.1666666666666666
 30
0.0
 11
-1.0
 21
-0.1666666666666666
 31
0.0
  0
LINE
  5
E4
  8
0
  6
BYBLOCK
 62
     0
 10
0.0
 20
0.0
 30
0.0
 11
-1.0
 21
0.0
 31
0.0
  0
ENDBLK
  5
E6
  8
0
  0
BLOCK
  8
0
  2
_DOT
 70
     0
 10
0.0
 20
0.0
 30
0.0
  3
_DOT
  1

  0
POLYLINE
  5
E8
  8
0
  6
BYBLOCK
 62
     0
 66
     1
 10
0.0
 20
0.0
 30
0.0
 70
     1
 40
0.5
 41
0.5
  0
VERTEX
  5
3C9
  8
0
  6
BYBLOCK
 62
     0
 10
-0.25
 20
0.0
 30
0.0
 42
1.0
  0
VERTEX
  5
3CA
  8
0
  6
BYBLOCK
 62
     0
 10
0.25
 20
0.0
 30
0.0
 42
1.0
  0
SEQEND
  5
3CB
  8
0
  6
BYBLOCK
 62
     0
  0
LINE
  5
E9
  8
0
  6
BYBLOCK
 62
     0
 10
-0.5
 20
0.0
 30
0.0
 11
-1.0
 21
0.0
 31
0.0
  0
ENDBLK
  5
EB
  8
0
  0
BLOCK
  8
0
  2
*U8
 70
     1
 10
0.0
 20
0.0
 30
0.0
  3
*U8
  1

  0
TEXT
  5
3DB
  8
0
 10
65240.073719407766
 20
11726.337177671179
 30
0.0
 40
190.0
  1
DRAFTER
  7
A3_1-100_
  0
ENDBLK
  5
3DD
  8
0
  0
BLOCK
  8
0
  2
*U9
 70
     1
 10
0.0
 20
0.0
 30
0.0
  3
*U9
  1

  0
TEXT
  5
3DF
  8
0
 10
65240.073719407766
 20
10776.337177671179
 30
0.0
 40
190.0
  1
DESIGNER
  7
A3_1-100_
  0
ENDBLK
  5
3E1
  8
0
  0
BLOCK
  8
0
  2
*U10
 70
     1
 10
0.0
 20
0.0
 30
0.0
  3
*U10
  1

  0
TEXT
  5
3E3
  8
0
 10
70750.073719407766
 20
11726.337177671179
 30
0.0
 40
190.0
  1
DATE
  7
A3_1-100_
  0
ENDBLK
  5
3E5
  8
0
  0
BLOCK
  8
0
  2
*U11
 70
     1
 10
0.0
 20
0.0
 30
0.0
  3
*U11
  1

  0
TEXT
  5
3E7
  8
0
 10
70750.073719407766
 20
10776.337177671179
 30
0.0
 40
190.0
  1
DATE
  7
A3_1-100_
  0
ENDBLK
  5
3E9
  8
0
  0
BLOCK
  8
0
  2
*U12
 70
     1
 10
0.0
 20
0.0
 30
0.0
  3
*U12
  1

  0
TEXT
  5
3EB
  8
0
 10
67488.577632241519
 20
12354.67925635296
 30
0.0
 40
380.0
  1
M E T R I C
  7
A3_1-100_
  0
ENDBLK
  5
3ED
  8
0
  0
BLOCK
  8
0
  2
*U13
 70
     1
 10
0.0
 20
0.0
 30
0.0
  3
*U13
  1

  0
TEXT
  5
3EF
  8
0
 10
72945.869173953222
 20
9256.3371776711847
 30
0.0
 40
190.0
  1
TITLE
  7
A3_1-100_
  0
ENDBLK
  5
3F1
  8
0
  0
BLOCK
  8
0
  2
*U14
 70
     1
 10
0.0
 20
0.0
 30
0.0
  3
*U14
  1

  0
TEXT
  5
3F3
  8
0
 10
72935.073719407766
 20
6121.3371776711838
 30
0.0
 40
190.0
  1
DRAWING  NUMBER
  7
A3_1-100_
  0
ENDBLK
  5
3F5
  8
0
  0
BLOCK
  8
0
  2
*U15
 70
     1
 10
0.0
 20
0.0
 30
0.0
  3
*U15
  1

  0
TEXT
  5
3F7
  8
0
 10
78345.75553758959
 20
6121.3371776711838
 30
0.0
 40
190.0
  1
REV.
  7
A3_1-100_
  0
ENDBLK
  5
3F9
  8
0
  0
BLOCK
  8
0
  2
*U16
 70
     1
 10
0.0
 20
0.0
 30
0.0
  3
*U16
  1

  0
TEXT
  5
3FB
  8
0
 10
72937.232810316869
 20
4506.3371776711838
 30
0.0
 40
190.0
  1
SCALE
  7
A3_1-100_
  0
ENDBLK
  5
3FD
  8
0
  0
BLOCK
  8
0
  2
*U17
 70
     1
 10
0.0
 20
0.0
 30
0.0
  3
*U17
  1

  0
TEXT
  5
3FF
  8
0
 10
77497.232810316869
 20
4107.0825238059442
 30
0.0
 40
190.0
  1
SHT   1   OF   1
  7
A3_1-100_
  0
ENDBLK
  5
401
  8
0
  0
BLOCK
  8
0
  2
*U18
 70
     1
 10
0.0
 20
0.0
 30
0.0
  3
*U18
  1

  0
TEXT
  5
403
  8
0
 10
71797.232810316884
 20
4506.3371776711838
 30
0.0
 40
190.0
  1
SIZE
  7
A3_1-100_
  0
ENDBLK
  5
405
  8
0
  0
BLOCK
  8
0
  2
*U19
 70
     1
 10
0.0
 20
0.0
 30
0.0
  3
*U19
  1

  0
TEXT
  5
407
  8
0
 10
68063.191439887552
 20
2283.7998263170039
 30
0.0
 40
570.0
  1
NX  GENERATED
  7
A3_1-100_
  0
ENDBLK
  5
409
  8
0
  0
BLOCK
  8
0
  2
*U20
 70
     1
 10
0.0
 20
0.0
 30
0.0
  3
*U20
  1

  0
TEXT
  5
40B
  8
0
 10
50949.744765620417
 20
2283.7998263170061
 30
0.0
 40
570.0
  1
2
  7
A3_1-100_
  0
ENDBLK
  5
40D
  8
0
  0
BLOCK
  8
0
  2
*U21
 70
     1
 10
0.0
 20
0.0
 30
0.0
  3
*U21
  1

  0
TEXT
  5
40F
  8
0
 10
31949.744765620431
 20
2283.7998263170089
 30
0.0
 40
570.0
  1
3
  7
A3_1-100_
  0
ENDBLK
  5
411
  8
0
  0
BLOCK
  8
0
  2
*U22
 70
     1
 10
0.0
 20
0.0
 30
0.0
  3
*U22
  1

  0
TEXT
  5
413
  8
0
 10
12908.169107233791
 20
2283.7998263170111
 30
0.0
 40
570.0
  1
4
  7
A3_1-100_
  0
ENDBLK
  5
415
  8
0
  0
BLOCK
  8
0
  2
*U23
 70
     1
 10
0.0
 20
0.0
 30
0.0
  3
*U23
  1

  0
TEXT
  5
417
  8
0
 10
50949.744765620431
 20
56813.799826317001
 30
0.0
 40
570.0
  1
2
  7
A3_1-100_
  0
ENDBLK
  5
419
  8
0
  0
BLOCK
  8
0
  2
*U24
 70
     1
 10
0.0
 20
0.0
 30
0.0
  3
*U24
  1

  0
TEXT
  5
41B
  8
0
 10
31949.744765620439
 20
56813.799826317008
 30
0.0
 40
570.0
  1
3
  7
A3_1-100_
  0
ENDBLK
  5
41D
  8
0
  0
BLOCK
  8
0
  2
*U25
 70
     1
 10
0.0
 20
0.0
 30
0.0
  3
*U25
  1

  0
TEXT
  5
41F
  8
0
 10
12908.169107233811
 20
56813.799826317008
 30
0.0
 40
570.0
  1
4
  7
A3_1-100_
  0
ENDBLK
  5
421
  8
0
  0
BLOCK
  8
0
  2
*U26
 70
     1
 10
0.0
 20
0.0
 30
0.0
  3
*U26
  1

  0
TEXT
  5
423
  8
0
 10
69904.403856529534
 20
56813.799826317001
 30
0.0
 40
570.0
  1
1
  7
A3_1-100_
  0
ENDBLK
  5
425
  8
0
  0
BLOCK
  8
0
  2
*U27
 70
     1
 10
0.0
 20
0.0
 30
0.0
  3
*U27
  1

  0
TEXT
  5
427
  8
0
 10
80565.974052262245
 20
9397.2805427680596
 30
0.0
 40
570.0
  1
A
  7
A3_1-100_
  0
ENDBLK
  5
429
  8
0
  0
BLOCK
  8
0
  2
*U28
 70
     1
 10
0.0
 20
0.0
 30
0.0
  3
*U28
  1

  0
TEXT
  5
42B
  8
0
 10
80520.633143171333
 20
22554.780542768061
 30
0.0
 40
570.0
  1
B
  7
A3_1-100_
  0
ENDBLK
  5
42D
  8
0
  0
BLOCK
  8
0
  2
*U29
 70
     1
 10
0.0
 20
0.0
 30
0.0
  3
*U29
  1

  0
TEXT
  5
42F
  8
0
 10
80530.34905226226
 20
35712.280542768058
 30
0.0
 40
570.0
  1
C
  7
A3_1-100_
  0
ENDBLK
  5
431
  8
0
  0
BLOCK
  8
0
  2
*U30
 70
     1
 10
0.0
 20
0.0
 30
0.0
  3
*U30
  1

  0
TEXT
  5
433
  8
0
 10
80520.633143171333
 20
48869.780542768051
 30
0.0
 40
570.0
  1
D
  7
A3_1-100_
  0
ENDBLK
  5
435
  8
0
  0
BLOCK
  8
0
  2
*U31
 70
     1
 10
0.0
 20
0.0
 30
0.0
  3
*U31
  1

  0
TEXT
  5
437
  8
0
 10
2665.9740522622619
 20
9397.2805427680596
 30
0.0
 40
570.0
  1
A
  7
A3_1-100_
  0
ENDBLK
  5
439
  8
0
  0
BLOCK
  8
0
  2
*U32
 70
     1
 10
0.0
 20
0.0
 30
0.0
  3
*U32
  1

  0
TEXT
  5
43B
  8
0
 10
2620.6331431713538
 20
22554.780542768061
 30
0.0
 40
570.0
  1
B
  7
A3_1-100_
  0
ENDBLK
  5
43D
  8
0
  0
BLOCK
  8
0
  2
*U33
 70
     1
 10
0.0
 20
0.0
 30
0.0
  3
*U33
  1

  0
TEXT
  5
43F
  8
0
 10
2630.3490522622628
 20
35712.280542768058
 30
0.0
 40
570.0
  1
C
  7
A3_1-100_
  0
ENDBLK
  5
441
  8
0
  0
BLOCK
  8
0
  2
*U34
 70
     1
 10
0.0
 20
0.0
 30
0.0
  3
*U34
  1

  0
TEXT
  5
443
  8
0
 10
2620.6331431713538
 20
48869.780542768051
 30
0.0
 40
570.0
  1
D
  7
A3_1-100_
  0
ENDBLK
  5
445
  8
0
  0
BLOCK
  8
0
  2
*U35
 70
     1
 10
0.0
 20
0.0
 30
0.0
  3
*U35
  1

  0
TEXT
  5
447
  8
0
 10
74004.626177391037
 20
11404.802958773629
 30
0.0
 40
190.0
  1
NOTICE OF PROPRIETARY PROPERTY:
  7
A3_1-100_
  0
ENDBLK
  5
449
  8
0
  0
BLOCK
  8
0
  2
*U36
 70
     1
 10
0.0
 20
0.0
 30
0.0
  3
*U36
  1

  0
TEXT
  5
44B
  8
0
 62
     0
 10
19418.78341659081
 20
44694.099791748973
 30
0.0
 40
800.0
  1
14463
  7
A3_1-200_
  0
ENDBLK
  5
44D
  8
0
  0
BLOCK
  8
0
  2
*U37
 70
     1
 10
0.0
 20
0.0
 30
0.0
  3
*U37
  1

  0
TEXT
  5
44F
  8
0
 62
     0
 10
31034.296231326851
 20
34227.622486114473
 30
0.0
 40
800.0
  1
13479
 50
90.0
  7
A3_1-200_
  0
ENDBLK
  5
451
  8
0
  0
ENDSEC
  0
SECTION
  2
ENTITIES
  0
POLYLINE
  5
2D
  8
0
 66
     1
 10
0.0
 20
0.0
 30
0.0
 70
     1
  0
VERTEX
  5
396
  8
0
 10
2000.0
 20
1600.0
 30
0.0
  0
VERTEX
  5
397
  8
0
 10
81800.0
 20
1600.0
 30
0.0
  0
VERTEX
  5
398
  8
0
 10
81800.0
 20
58030.0
 30
0.0
  0
VERTEX
  5
399
  8
0
 10
2000.0
 20
58030.0
 30
0.0
  0
SEQEND
  5
39A
  8
0
  0
LINE
  5
11F
  8
0
 10
5230.0
 20
3500.0
 30
0.0
 11
78570.0
 21
3500.0
 31
0.0
  0
LINE
  5
120
  8
0
 10
79900.0
 20
4830.0
 30
0.0
 11
79900.0
 21
54799.999999999993
 31
0.0
  0
LINE
  5
121
  8
0
 10
78570.0
 20
56129.999999999993
 30
0.0
 11
5230.0000000000136
 21
56130.0
 31
0.0
  0
LINE
  5
122
  8
0
 10
3900.0
 20
54800.0
 30
0.0
 11
3900.0
 21
4830.0000000000082
 31
0.0
  0
LINE
  5
136
  8
0
 10
22900.0
 20
56130.0
 30
0.0
 11
22900.0
 21
58030.0
 31
0.0
  0
LINE
  5
137
  8
0
 10
41900.0
 20
56130.0
 30
0.0
 11
41900.0
 21
58030.0
 31
0.0
  0
LINE
  5
138
  8
0
 10
60900.0
 20
56130.0
 30
0.0
 11
60900.0
 21
58030.0
 31
0.0
  0
LINE
  5
139
  8
0
 10
22899.999999999989
 20
1600.0
 30
0.0
 11
22899.999999999989
 21
3500.0
 31
0.0
  0
LINE
  5
13A
  8
0
 10
41899.999999999978
 20
1600.0
 30
0.0
 11
41899.999999999978
 21
3500.0
 31
0.0
  0
LINE
  5
13B
  8
0
 10
60899.999999999978
 20
1600.0
 30
0.0
 11
60899.999999999978
 21
3500.0
 31
0.0
  0
LINE
  5
13E
  8
0
 10
3900.0
 20
16657.5
 30
0.0
 11
2000.0
 21
16657.5
 31
0.0
  0
LINE
  5
13F
  8
0
 10
3900.0
 20
29815.0
 30
0.0
 11
2000.0
 21
29815.0
 31
0.0
  0
LINE
  5
140
  8
0
 10
3900.0
 20
42972.5
 30
0.0
 11
2000.0
 21
42972.5
 31
0.0
  0
LINE
  5
141
  8
0
 10
81800.0
 20
16657.5
 30
0.0
 11
79900.0
 21
16657.5
 31
0.0
  0
LINE
  5
142
  8
0
 10
81800.0
 20
29815.0
 30
0.0
 11
79900.0
 21
29815.0
 31
0.0
  0
LINE
  5
143
  8
0
 10
81800.0
 20
42972.5
 30
0.0
 11
79900.0
 21
42972.5
 31
0.0
  0
LINE
  5
147
  8
0
 10
65080.0
 20
3500.0
 30
0.0
 11
65080.0
 21
12050.0
 31
0.0
  0
LINE
  5
148
  8
0
 10
66030.0
 20
13000.0
 30
0.0
 11
79900.0
 21
13000.0
 31
0.0
  0
LINE
  5
14A
  8
0
 10
72870.0
 20
3500.0
 30
0.0
 11
72870.0
 21
13000.0
 31
0.0
  0
LINE
  5
14B
  8
0
 10
65080.0
 20
12050.0
 30
0.0
 11
79900.0
 21
12050.0
 31
0.0
  0
LINE
  5
14C
  8
0
 10
65080.0
 20
4830.0
 30
0.0
 11
79899.999999999985
 21
4830.0
 31
0.0
  0
ARC
  5
14D
  8
0
 10
78570.0
 20
4830.0
 30
0.0
 40
1330.0
 50
270.0
 51
0.0
  0
ARC
  5
14E
  8
0
 10
78570.0
 20
54799.999999999993
 30
0.0
 40
1330.0
 50
0.0
 51
90.0
  0
ARC
  5
14F
  8
0
 10
5230.0000000000136
 20
54800.0
 30
0.0
 40
1330.0
 50
90.0
 51
180.0
  0
ARC
  5
150
  8
0
 10
5230.0
 20
4830.0
 30
0.0
 40
1330.0
 50
180.0
 51
270.0
  0
ARC
  5
151
  8
0
 10
66030.0
 20
12050.0
 30
0.0
 40
950.0
 50
90.0
 51
180.0
  0
LINE
  5
152
  8
0
 10
72870.0
 20
9580.0
 30
0.0
 11
79900.0
 21
9580.0
 31
0.0
  0
LINE
  5
153
  8
0
 10
72870.0
 20
6445.0
 30
0.0
 11
79900.0
 21
6445.0
 31
0.0
  0
LINE
  5
154
  8
0
 10
65080.0
 20
11100.0
 30
0.0
 11
72870.0
 21
11100.0
 31
0.0
  0
LINE
  5
155
  8
0
 10
65080.0
 20
10150.0
 30
0.0
 11
72870.0
 21
10150.0
 31
0.0
  0
LINE
  5
156
  8
0
 10
70685.0
 20
10150.0
 30
0.0
 11
70685.0
 21
12050.0
 31
0.0
  0
LINE
  5
157
  8
0
 10
71730.0
 20
3500.0
 30
0.0
 11
71730.000000000015
 21
4830.0
 31
0.0
  0
LINE
  5
158
  8
0
 10
77430.0
 20
3500.0
 30
0.0
 11
77430.0
 21
4830.0
 31
0.0
  0
INSERT
  5
166
  8
0
  2
*U8
 10
0.0
 20
0.0
 30
0.0
  0
INSERT
  5
167
  8
0
  2
*U9
 10
0.0
 20
0.0
 30
0.0
  0
INSERT
  5
168
  8
0
  2
*U10
 10
0.0
 20
0.0
 30
0.0
  0
INSERT
  5
169
  8
0
  2
*U11
 10
0.0
 20
0.0
 30
0.0
  0
INSERT
  5
170
  8
0
  2
*U12
 10
0.0
 20
0.0
 30
0.0
  0
LINE
  5
17C
  8
0
 10
78285.0
 20
4830.0
 30
0.0
 11
78285.0
 21
6445.0
 31
0.0
  0
INSERT
  5
17D
  8
0
  2
*U13
 10
0.0
 20
0.0
 30
0.0
  0
INSERT
  5
17E
  8
0
  2
*U14
 10
0.0
 20
0.0
 30
0.0
  0
INSERT
  5
17F
  8
0
  2
*U15
 10
0.0
 20
0.0
 30
0.0
  0
INSERT
  5
180
  8
0
  2
*U16
 10
0.0
 20
0.0
 30
0.0
  0
INSERT
  5
181
  8
0
  2
*U17
 10
0.0
 20
0.0
 30
0.0
  0
INSERT
  5
182
  8
0
  2
*U18
 10
0.0
 20
0.0
 30
0.0
  0
INSERT
  5
18C
  8
0
  2
*U19
 10
0.0
 20
0.0
 30
0.0
  0
INSERT
  5
18D
  8
0
  2
*U20
 10
0.0
 20
0.0
 30
0.0
  0
INSERT
  5
196
  8
0
  2
*U21
 10
0.0
 20
0.0
 30
0.0
  0
INSERT
  5
197
  8
0
  2
*U22
 10
0.0
 20
0.0
 30
0.0
  0
INSERT
  5
198
  8
0
  2
*U23
 10
0.0
 20
0.0
 30
0.0
  0
INSERT
  5
199
  8
0
  2
*U24
 10
0.0
 20
0.0
 30
0.0
  0
INSERT
  5
19A
  8
0
  2
*U25
 10
0.0
 20
0.0
 30
0.0
  0
INSERT
  5
19B
  8
0
  2
*U26
 10
0.0
 20
0.0
 30
0.0
  0
INSERT
  5
19C
  8
0
  2
*U27
 10
0.0
 20
0.0
 30
0.0
  0
INSERT
  5
19D
  8
0
  2
*U28
 10
0.0
 20
0.0
 30
0.0
  0
INSERT
  5
19E
  8
0
  2
*U29
 10
0.0
 20
0.0
 30
0.0
  0
INSERT
  5
19F
  8
0
  2
*U30
 10
0.0
 20
0.0
 30
0.0
  0
INSERT
  5
1A0
  8
0
  2
*U31
 10
0.0
 20
0.0
 30
0.0
  0
INSERT
  5
1A1
  8
0
  2
*U32
 10
0.0
 20
0.0
 30
0.0
  0
INSERT
  5
1A2
  8
0
  2
*U33
 10
0.0
 20
0.0
 30
0.0
  0
INSERT
  5
1A3
  8
0
  2
*U34
 10
0.0
 20
0.0
 30
0.0
  0
INSERT
  5
1B3
  8
0
  2
*U35
 10
0.0
 20
0.0
 30
0.0
  0
ENDSEC
  0
EOF
