  0
SECTION
  2
HEADER
  9
$ACADVER
  1
AC1015
  9
$ACADMAINTVER
 70
    20
  9
$DWGCODEPAGE
  3
ANSI_932
  9
$INSBASE
 10
0.0
 20
0.0
 30
0.0
  9
$EXTMIN
 10
2278.417976612946
 20
6523.703648536117
 30
-0.0015258207003583
  9
$EXTMAX
 10
10668.67663103018
 20
11880.36257648882
 30
0.0000000349246037
  9
$LIMMIN
 10
0.0
 20
0.0
  9
$LIMMAX
 10
16799.99975
 20
11879.99982
  9
$ORTHOMODE
 70
     0
  9
$REGENMODE
 70
     1
  9
$FILLMODE
 70
     0
  9
$QTEXTMODE
 70
     0
  9
$MIRRTEXT
 70
     1
  9
$LTSCALE
 40
1.0
  9
$ATTMODE
 70
     1
  9
$TEXTSIZE
 40
200.0
  9
$TRACEWID
 40
0.185375
  9
$TEXTSTYLE
  7
STANDARD
  9
$CLAYER
  8
0
  9
$CELTYPE
  6
CONTINUOUS
  9
$CECOLOR
 62
   250
  9
$CELTSCALE
 40
1.0
  9
$DISPSILH
 70
     0
  9
$DIMSCALE
 40
1.0
  9
$DIMASZ
 40
80.0
  9
$DIMEXO
 40
19.19999957
  9
$DIMDLI
 40
120.0
  9
$DIMRND
 40
0.0
  9
$DIMDLE
 40
0.0
  9
$DIMEXE
 40
80.0
  9
$DIMTP
 40
0.0
  9
$DIMTM
 40
0.0
  9
$DIMTXT
 40
80.0
  9
$DIMCEN
 40
2.5
  9
$DIMTSZ
 40
0.0
  9
$DIMTOL
 70
     0
  9
$DIMLIM
 70
     0
  9
$DIMTIH
 70
     0
  9
$DIMTOH
 70
     0
  9
$DIMSE1
 70
     0
  9
$DIMSE2
 70
     0
  9
$DIMTAD
 70
     1
  9
$DIMZIN
 70
     0
  9
$DIMBLK
  1

  9
$DIMASO
 70
     1
  9
$DIMSHO
 70
     1
  9
$DIMPOST
  1

  9
$DIMAPOST
  1

  9
$DIMALT
 70
     0
  9
$DIMALTD
 70
     2
  9
$DIMALTF
 40
25.4
  9
$DIMLFAC
 40
1.0
  9
$DIMTOFL
 70
     0
  9
$DIMTVP
 40
0.0
  9
$DIMTIX
 70
     0
  9
$DIMSOXD
 70
     0
  9
$DIMSAH
 70
     0
  9
$DIMBLK1
  1

  9
$DIMBLK2
  1

  9
$DIMSTYLE
  2
STANDARD
  9
$DIMCLRD
 70
     0
  9
$DIMCLRE
 70
     0
  9
$DIMCLRT
 70
     0
  9
$DIMTFAC
 40
1.0
  9
$DIMGAP
 40
19.2
  9
$DIMJUST
 70
     0
  9
$DIMSD1
 70
     0
  9
$DIMSD2
 70
     0
  9
$DIMTOLJ
 70
     1
  9
$DIMTZIN
 70
     0
  9
$DIMALTZ
 70
     0
  9
$DIMALTTZ
 70
     0
  9
$DIMUPT
 70
     0
  9
$DIMDEC
 70
     1
  9
$DIMTDEC
 70
     4
  9
$DIMALTU
 70
     2
  9
$DIMALTTD
 70
     2
  9
$DIMTXSTY
  7
STANDARD
  9
$DIMAUNIT
 70
     0
  9
$DIMADEC
 70
     0
  9
$DIMALTRND
 40
0.0
  9
$DIMAZIN
 70
     0
  9
$DIMDSEP
 70
    46
  9
$DIMATFIT
 70
     3
  9
$DIMFRAC
 70
     0
  9
$DIMLDRBLK
  1

  9
$DIMLUNIT
 70
     2
  9
$DIMLWD
 70
    -2
  9
$DIMLWE
 70
    -2
  9
$DIMTMOVE
 70
     0
  9
$LUNITS
 70
     2
  9
$LUPREC
 70
     4
  9
$SKETCHINC
 40
0.1
  9
$FILLETRAD
 40
0.0
  9
$AUNITS
 70
     1
  9
$AUPREC
 70
     4
  9
$MENU
  1
ACAD
  9
$ELEVATION
 40
0.0
  9
$PELEVATION
 40
0.0
  9
$THICKNESS
 40
0.0
  9
$LIMCHECK
 70
     0
  9
$CHAMFERA
 40
0.0
  9
$CHAMFERB
 40
0.0
  9
$CHAMFERC
 40
0.0
  9
$CHAMFERD
 40
0.0
  9
$SKPOLY
 70
     0
  9
$TDCREATE
 40
2451598.604997894
  9
$TDUCREATE
 40
2451598.229997894
  9
$TDUPDATE
 40
2455278.662324931
  9
$TDUUPDATE
 40
2455278.287324931
  9
$TDINDWG
 40
0.5645630208
  9
$TDUSRTIMER
 40
0.5645630208
  9
$USRTIMER
 70
     1
  9
$ANGBASE
 50
0.0
  9
$ANGDIR
 70
     0
  9
$PDMODE
 70
     0
  9
$PDSIZE
 40
0.0
  9
$PLINEWID
 40
0.0
  9
$SPLFRAME
 70
     0
  9
$SPLINETYPE
 70
     6
  9
$SPLINESEGS
 70
     8
  9
$HANDSEED
  5
58F5
  9
$SURFTAB1
 70
     6
  9
$SURFTAB2
 70
     6
  9
$SURFTYPE
 70
     6
  9
$SURFU
 70
     6
  9
$SURFV
 70
     6
  9
$UCSBASE
  2

  9
$UCSNAME
  2

  9
$UCSORG
 10
0.0
 20
0.0
 30
0.0
  9
$UCSXDIR
 10
1.0
 20
0.0
 30
0.0
  9
$UCSYDIR
 10
0.0
 20
1.0
 30
0.0
  9
$UCSORTHOREF
  2

  9
$UCSORTHOVIEW
 70
     0
  9
$UCSORGTOP
 10
0.0
 20
0.0
 30
0.0
  9
$UCSORGBOTTOM
 10
0.0
 20
0.0
 30
0.0
  9
$UCSORGLEFT
 10
0.0
 20
0.0
 30
0.0
  9
$UCSORGRIGHT
 10
0.0
 20
0.0
 30
0.0
  9
$UCSORGFRONT
 10
0.0
 20
0.0
 30
0.0
  9
$UCSORGBACK
 10
0.0
 20
0.0
 30
0.0
  9
$PUCSBASE
  2

  9
$PUCSNAME
  2

  9
$PUCSORG
 10
0.0
 20
0.0
 30
0.0
  9
$PUCSXDIR
 10
1.0
 20
0.0
 30
0.0
  9
$PUCSYDIR
 10
0.0
 20
1.0
 30
0.0
  9
$PUCSORTHOREF
  2

  9
$PUCSORTHOVIEW
 70
     0
  9
$PUCSORGTOP
 10
0.0
 20
0.0
 30
0.0
  9
$PUCSORGBOTTOM
 10
0.0
 20
0.0
 30
0.0
  9
$PUCSORGLEFT
 10
0.0
 20
0.0
 30
0.0
  9
$PUCSORGRIGHT
 10
0.0
 20
0.0
 30
0.0
  9
$PUCSORGFRONT
 10
0.0
 20
0.0
 30
0.0
  9
$PUCSORGBACK
 10
0.0
 20
0.0
 30
0.0
  9
$USERI1
 70
     0
  9
$USERI2
 70
     0
  9
$USERI3
 70
     0
  9
$USERI4
 70
     0
  9
$USERI5
 70
     0
  9
$USERR1
 40
0.0
  9
$USERR2
 40
0.0
  9
$USERR3
 40
0.0
  9
$USERR4
 40
0.0
  9
$USERR5
 40
0.0
  9
$WORLDVIEW
 70
     1
  9
$SHADEDGE
 70
     3
  9
$SHADEDIF
 70
    70
  9
$TILEMODE
 70
     1
  9
$MAXACTVP
 70
    48
  9
$PINSBASE
 10
0.0
 20
0.0
 30
0.0
  9
$PLIMCHECK
 70
     0
  9
$PEXTMIN
 10
6.138099267937292
 20
3.900614745123903
 30
0.0
  9
$PEXTMAX
 10
439.4714326012705
 20
203.900614745124
 30
0.0
  9
$PLIMMIN
 10
0.0
 20
0.0
  9
$PLIMMAX
 10
12.0
 20
9.0
  9
$UNITMODE
 70
     0
  9
$VISRETAIN
 70
     1
  9
$PLINEGEN
 70
     0
  9
$PSLTSCALE
 70
     1
  9
$TREEDEPTH
 70
  3020
  9
$CMLSTYLE
  2
STANDARD
  9
$CMLJUST
 70
     0
  9
$CMLSCALE
 40
1.0
  9
$PROXYGRAPHICS
 70
     1
  9
$MEASUREMENT
 70
     0
  9
$CELWEIGHT
370
    -1
  9
$ENDCAPS
280
     0
  9
$JOINSTYLE
280
     0
  9
$LWDISPLAY
290
     0
  9
$INSUNITS
 70
     0
  9
$HYPERLINKBASE
  1

  9
$STYLESHEET
  1

  9
$XEDIT
290
     1
  9
$CEPSNTYPE
380
     0
  9
$PSTYLEMODE
290
     1
  9
$FINGERPRINTGUID
  2
{D377FAD8-5BBC-4DDB-861A-5C1CC9677164}
  9
$VERSIONGUID
  2
{F99A08D3-B111-4CA0-8CB2-CBF69C1E2B6F}
  9
$EXTNAMES
290
     1
  9
$PSVPSCALE
 40
0.0
  9
$OLESTARTUP
290
     0
  0
ENDSEC
  0
SECTION
  2
CLASSES
  0
CLASS
  1
ACDBDICTIONARYWDFLT
  2
AcDbDictionaryWithDefault
  3
ObjectDBX Classes
 90
        0
280
     0
281
     0
  0
CLASS
  1
DICTIONARYVAR
  2
AcDbDictionaryVar
  3
ObjectDBX Classes
 90
        0
280
     0
281
     0
  0
CLASS
  1
ACDBPLACEHOLDER
  2
AcDbPlaceHolder
  3
ObjectDBX Classes
 90
        0
280
     0
281
     0
  0
CLASS
  1
LAYOUT
  2
AcDbLayout
  3
ObjectDBX Classes
 90
        0
280
     0
281
     0
  0
ENDSEC
  0
SECTION
  2
TABLES
  0
TABLE
  2
VPORT
  5
8
330
0
100
AcDbSymbolTable
 70
     4
  0
VPORT
  5
58EB
330
8
100
AcDbSymbolTableRecord
100
AcDbViewportTableRecord
  2
*Active
 70
     0
 10
0.0
 20
0.0
 11
1.0
 21
1.0
 12
6019.388738315072
 22
7420.147547871038
 13
0.0
 23
0.0
 14
1.0
 24
1.0
 15
0.0
 25
0.0
 16
0.0
 26
0.0
 36
1.0
 17
0.0
 27
0.0
 37
0.0
 40
4978.888655981302
 41
2.200729927007299
 42
50.0
 43
0.0
 44
0.0
 50
0.0
 51
0.0
 71
     0
 72
   100
 73
     1
 74
     1
 75
     0
 76
     0
 77
     0
 78
     0
281
     0
 65
     1
110
0.0
120
0.0
130
0.0
111
1.0
121
0.0
131
0.0
112
0.0
122
1.0
132
0.0
 79
     0
146
0.0
  0
ENDTAB
  0
TABLE
  2
LTYPE
  5
5
330
0
100
AcDbSymbolTable
 70
     1
  0
LTYPE
  5
12
330
5
100
AcDbSymbolTableRecord
100
AcDbLinetypeTableRecord
  2
BYBLOCK
 70
     0
  3

 72
    65
 73
     0
 40
0.0
  0
LTYPE
  5
13
330
5
100
AcDbSymbolTableRecord
100
AcDbLinetypeTableRecord
  2
BYLAYER
 70
     0
  3

 72
    65
 73
     0
 40
0.0
  0
LTYPE
  5
14
330
5
100
AcDbSymbolTableRecord
100
AcDbLinetypeTableRecord
  2
CONTINUOUS
 70
     0
  3
Solid line
 72
    65
 73
     0
 40
0.0
  0
ENDTAB
  0
TABLE
  2
LAYER
  5
2
330
0
100
AcDbSymbolTable
 70
    60
  0
LAYER
  5
E
330
2
100
AcDbSymbolTableRecord
100
AcDbLayerTableRecord
  2
0
 70
     0
 62
     7
  6
CONTINUOUS
370
    -3
390
53D7
  0
LAYER
  5
57
330
2
100
AcDbSymbolTableRecord
100
AcDbLayerTableRecord
  2
LV250
 70
     0
 62
     7
  6
CONTINUOUS
370
    -3
390
53D7
  0
LAYER
  5
58D0
330
2
100
AcDbSymbolTableRecord
100
AcDbLayerTableRecord
  2
Defpoints
 70
     0
 62
     7
  6
CONTINUOUS
290
     0
370
    -3
390
53D7
  0
ENDTAB
  0
TABLE
  2
STYLE
  5
3
330
0
100
AcDbSymbolTable
 70
     3
  0
STYLE
  5
F
330
3
100
AcDbSymbolTableRecord
100
AcDbTextStyleTableRecord
  2
STANDARD
 70
     0
 40
0.0
 41
1.0
 50
0.0
 71
     0
 42
200.0
  3
HGRSKP.TTF
  4

1001
ACAD
1000
HGSeikaishotaiPRO
1071
    32786
  0
ENDTAB
  0
TABLE
  2
VIEW
  5
6
330
0
100
AcDbSymbolTable
 70
     0
  0
ENDTAB
  0
TABLE
  2
UCS
  5
7
330
0
100
AcDbSymbolTable
 70
     0
  0
ENDTAB
  0
TABLE
  2
APPID
  5
9
330
0
100
AcDbSymbolTable
 70
     1
  0
APPID
  5
10
330
9
100
AcDbSymbolTableRecord
100
AcDbRegAppTableRecord
  2
ACAD
 70
     0
  0
ENDTAB
  0
TABLE
  2
DIMSTYLE
  5
A
330
0
100
AcDbSymbolTable
 70
     1
100
AcDbDimStyleTable
 71
     1
340
50CC
  0
DIMSTYLE
105
50CC
330
A
100
AcDbSymbolTableRecord
100
AcDbDimStyleTableRecord
  2
STANDARD
 70
     0
 41
80.0
 42
19.19999957
 43
120.0
 44
80.0
 73
     0
 74
     0
 77
     1
140
80.0
141
2.5
147
19.2
271
     1
340
F
  0
ENDTAB
  0
TABLE
  2
BLOCK_RECORD
  5
1
330
0
100
AcDbSymbolTable
 70
   282
  0
BLOCK_RECORD
  5
18
330
1
100
AcDbSymbolTableRecord
100
AcDbBlockTableRecord
  2
*MODEL_SPACE
340
53DC
  0
BLOCK_RECORD
  5
15
330
1
100
AcDbSymbolTableRecord
100
AcDbBlockTableRecord
  2
*PAPER_SPACE
340
53DD
  0
BLOCK_RECORD
  5
53E2
330
1
100
AcDbSymbolTableRecord
100
AcDbBlockTableRecord
  2
kou26
340
0
310
2800000020000000200000000100080000000000000400000000000000000000000000000000000000000000000080000080000000808000800000008000800080800000C0C0C000C0DCC000F0CAA6000020400000206000002080000020A0000020C0000020E00000400000004020000040400000406000004080000040A0
310
000040C0000040E00000600000006020000060400000606000006080000060A0000060C0000060E00000800000008020000080400000806000008080000080A0000080C0000080E00000A0000000A0200000A0400000A0600000A0800000A0A00000A0C00000A0E00000C0000000C0200000C0400000C0600000C0800000C0
310
A00000C0C00000C0E00000E0000000E0200000E0400000E0600000E0800000E0A00000E0C00000E0E00040000000400020004000400040006000400080004000A0004000C0004000E00040200000402020004020400040206000402080004020A0004020C0004020E000404000004040200040404000404060004040800040
310
40A0004040C0004040E00040600000406020004060400040606000406080004060A0004060C0004060E00040800000408020004080400040806000408080004080A0004080C0004080E00040A0000040A0200040A0400040A0600040A0800040A0A00040A0C00040A0E00040C0000040C0200040C0400040C0600040C08000
310
40C0A00040C0C00040C0E00040E0000040E0200040E0400040E0600040E0800040E0A00040E0C00040E0E00080000000800020008000400080006000800080008000A0008000C0008000E00080200000802020008020400080206000802080008020A0008020C0008020E00080400000804020008040400080406000804080
310
008040A0008040C0008040E00080600000806020008060400080606000806080008060A0008060C0008060E00080800000808020008080400080806000808080008080A0008080C0008080E00080A0000080A0200080A0400080A0600080A0800080A0A00080A0C00080A0E00080C0000080C0200080C0400080C0600080C0
310
800080C0A00080C0C00080C0E00080E0000080E0200080E0400080E0600080E0800080E0A00080E0C00080E0E000C0000000C0002000C0004000C0006000C0008000C000A000C000C000C000E000C0200000C0202000C0204000C0206000C0208000C020A000C020C000C020E000C0400000C0402000C0404000C0406000C0
310
408000C040A000C040C000C040E000C0600000C0602000C0604000C0606000C0608000C060A000C060C000C060E000C0800000C0802000C0804000C0806000C0808000C080A000C080C000C080E000C0A00000C0A02000C0A04000C0A06000C0A08000C0A0A000C0A0C000C0A0E000C0C00000C0C02000C0C04000C0C06000
310
C0C08000C0C0A000F0FBFF00A4A0A000808080000000FF0000FF000000FFFF00FF000000FF00FF00FFFF0000FFFFFF00FFFFFFFFFFFFFFFFFFFFFFFFFFFFFFFFFFFFFFFFFFFFFFFFFFFFFFFFFFFFFFFFFFFFFFFFFFFFFFFFFFFFFFFFFFFFFFFFFFFFFFFFFFFFFFFFFFFFFFFFFFFFFFFFFFFFFFFFFFFFFFFFFFFFFFFFFFFFFF
310
FFFFFFFFFFFFFFFFFFFFFFFFFFFFFFFFFFFFFFFFFFFFFFFFFFFFFFFFFFFFFFFFFFFFFFFFFFFFFFFFFFFFFFFFFFFFFFFFFFFFFFFFFFFFFFFFFFFFFFFFFFFFFFFFFFFFFFFFFFFFFFFFFFFFFFFFFFFFFFFFFFFFFFFFFFFFFFFFFFFFFFFFFFFFFFFFFFFFFFFFFFFFFFFFFFFFFFFFFFFFFFFFFFFFFFFFFFFFFFFFFFFFFFFFFFFFFF
310
FFFFFFFFFFFFFFFFFFFFFFFFFFFFFFFFFFFFFFFFFFFFFFFFFFFFFFFFFFFFFFFFFFFFFFFFFFFFFFFFFFFFFFFFFFFFFFFFFFFFFFFFFFFFFFFFFFFFFFFFFFFFFFFFFFFFFFFFFFFFFFFFFFFFFFFFFFFFFFFFFFFFFFFFFFFFFFFFFFFFFFFFFFFFFFFFFFFFFFFFFFFFFFFFFFFFFFFFFFFFFFFFFFFFFFFFFFFFFFFFFFFFFFFFFFFFFF
310
FFFFFFFFFFFFFFFFFFFFFFFFFFFFFFFFFFFFFFFFFFFFFFFF00FFFFFFFFFFFFFFFFFFFFFFFFFFFFFFFFFFFFFFFFFFFFFFFFFFFFFFFFFFFF0000000000000000000000000000000000000000000000000000FFFFFF000000000000000000000000000000FFFFFFFFFFFFFFFF000000000000FFFFFF0000FFFFFF000000000000
310
000000000000000000000000000000000000FFFFFF000000000000000000000000000000000000000000000000000000000000FFFFFF0000000000000000000000000000000000000000000000000000000000FFFFFF00000000000000000000000000000000000000000000000000000000FFFFFFFFFFFFFF000000000000
310
00000000FFFFFFFFFFFFFFFFFF00FFFF000000FFFFFFFFFFFFFF00000000000000000000000000000000000000000000000000FFFFFFFFFFFFFFFF00FFFFFFFFFFFFFFFFFFFFFFFFFFFFFFFFFFFFFFFFFFFFFFFFFFFFFFFFFFFFFFFFFFFFFFFFFFFFFFFFFFFFFFFFFFFFFFFFFFFFFFFFFFFFFFFFFFFFFFFFFFFFFFFFFFFFFF
310
FFFFFFFFFFFFFFFFFFFFFFFFFFFFFFFFFFFFFFFFFFFFFFFFFFFFFFFFFFFFFFFFFFFFFFFFFFFFFFFFFFFFFFFFFFFFFFFFFFFFFFFFFFFFFFFFFFFFFFFFFFFFFFFFFFFFFFFFFFFFFFFFFFFFFFFFFFFFFFFFFFFFFFFFFFFFFFFFFFFFFFFFFFFFFFFFFFFFFFFFFFFFFFFFFFFFFFFFFFFFFFFFFFFFFFFFFFFFFFFFFFFFFFFFFFFFFF
310
FFFFFFFFFFFFFFFFFFFFFFFFFFFFFFFFFFFFFFFFFFFFFFFFFFFFFFFFFFFFFFFFFFFFFFFFFFFFFFFFFFFFFFFFFFFFFFFFFFFFFFFFFFFFFFFFFFFFFFFFFFFFFFFFFFFFFFFFFFFFFFFFFFFFFFFFFFFFFFFFFFFFFFFFFFFFFFFFFFFFFFFFFFFFFFFFFFFFFFFFFFFFFFFFFFFFFFFFFFFFFFFFFFFFFFFFFFFFFFFFFFFFFFFFFFFFFF
310
FFFFFFFFFFFFFFFFFFFFFFFFFFFFFFFFFFFFFFFFFFFFFFFFFFFFFFFFFFFFFFFFFFFFFFFFFFFFFFFFFFFFFFFFFFFFFFFFFFFFFFFFFFFFFFFF
102
{BLKREFS
331
58CE
102
}
  0
BLOCK_RECORD
  5
58D1
330
1
100
AcDbSymbolTableRecord
100
AcDbBlockTableRecord
  2
*D281
340
0
  0
ENDTAB
  0
ENDSEC
  0
SECTION
  2
BLOCKS
  0
BLOCK
  5
19
330
18
100
AcDbEntity
  8
0
100
AcDbBlockBegin
  2
*MODEL_SPACE
 70
     0
 10
0.0
 20
0.0
 30
0.0
  3
*MODEL_SPACE
  1

  0
ENDBLK
  5
1A
330
18
100
AcDbEntity
  8
0
100
AcDbBlockEnd
  0
BLOCK
  5
16
330
15
100
AcDbEntity
 67
     1
  8
0
100
AcDbBlockBegin
  2
*PAPER_SPACE
 70
     0
 10
0.0
 20
0.0
 30
0.0
  3
*PAPER_SPACE
  1

  0
ENDBLK
  5
17
330
15
100
AcDbEntity
 67
     1
  8
0
100
AcDbBlockEnd
  0
BLOCK
  5
53E3
330
53E2
100
AcDbEntity
  8
0
 62
   250
100
AcDbBlockBegin
  2
kou26
 70
     0
 10
0.0
 20
0.0
 30
0.0
  3
kou26
  1

  0
LINE
  5
53E5
330
53E2
100
AcDbEntity
  8
0
  6
Continuous
100
AcDbLine
 10
-2781.875488
 20
-785.3413659999987
 30
0.0
 11
-2781.875488
 21
-932.4489094287583
 31
0.0
  0
LINE
  5
53E6
330
53E2
100
AcDbEntity
  8
0
  6
Continuous
100
AcDbLine
 10
-3042.875488
 20
-799.3413659999987
 30
0.0
 11
-3042.875488
 21
-815.3413659999987
 31
0.0
  0
LINE
  5
53E7
330
53E2
100
AcDbEntity
  8
0
  6
Continuous
100
AcDbLine
 10
-4997.326517952419
 20
-33.47766126513306
 30
0.0
 11
-4998.033356999998
 21
-48.46099799999866
 31
0.0
  0
LINE
  5
53E8
330
53E2
100
AcDbEntity
  8
0
  6
Continuous
100
AcDbLine
 10
-2884.875488
 20
1088.658634000001
 30
0.0
 11
-2884.875488
 21
1043.629197
 31
0.0
  0
LINE
  5
53E9
330
53E2
100
AcDbEntity
  8
0
  6
Continuous
100
AcDbLine
 10
-2878.875488
 20
1049.158634000001
 30
0.0
 11
-2878.875488
 21
1088.658634000001
 31
0.0
  0
LINE
  5
53EA
330
53E2
100
AcDbEntity
  8
0
  6
Continuous
100
AcDbLine
 10
-3076.275487999999
 20
998.8725230000017
 30
0.0
 11
-3076.275487999999
 21
988.6119016587453
 31
0.0
  0
LINE
  5
53EB
330
53E2
100
AcDbEntity
  8
0
  6
Continuous
100
AcDbLine
 10
-3062.875488
 20
762.1586340000012
 30
0.0
 11
-3068.875488
 21
762.1586340000012
 31
0.0
  0
LINE
  5
53EC
330
53E2
100
AcDbEntity
  8
0
  6
Continuous
100
AcDbLine
 10
-3068.875488
 20
657.1586340000012
 30
0.0
 11
-3062.875488
 21
657.1586340000012
 31
0.0
  0
LINE
  5
53ED
330
53E2
100
AcDbEntity
  8
0
  6
Continuous
100
AcDbLine
 10
-3068.875488
 20
762.1586340000012
 30
0.0
 11
-3068.875488
 21
657.1586340000012
 31
0.0
  0
LINE
  5
53EE
330
53E2
100
AcDbEntity
  8
0
  6
Continuous
100
AcDbLine
 10
-3046.875488
 20
762.1586340000012
 30
0.0
 11
-3062.875488
 21
762.1586340000012
 31
0.0
  0
LINE
  5
53EF
330
53E2
100
AcDbEntity
  8
0
  6
Continuous
100
AcDbLine
 10
-3046.875488
 20
657.1586340000012
 30
0.0
 11
-3046.875488
 21
762.1586340000012
 31
0.0
  0
LINE
  5
53F0
330
53E2
100
AcDbEntity
  8
0
  6
Continuous
100
AcDbLine
 10
-3062.875488
 20
657.1586340000012
 30
0.0
 11
-3046.875488
 21
657.1586340000012
 31
0.0
  0
LINE
  5
53F1
330
53E2
100
AcDbEntity
  8
0
  6
Continuous
100
AcDbLine
 10
-2880.875488
 20
-799.8413659999987
 30
0.0
 11
-2880.875488
 21
-839.3413659999987
 31
0.0
  0
LINE
  5
53F2
330
53E2
100
AcDbEntity
  8
0
  6
Continuous
100
AcDbLine
 10
-3076.275487999999
 20
-749.5364949999993
 30
0.0
 11
-3076.164350714573
 21
-739.3055195003634
 31
0.0
  0
LINE
  5
53F3
330
53E2
100
AcDbEntity
  8
0
  6
Continuous
100
AcDbLine
 10
-6076.812751
 20
319.9160640000009
 30
0.0
 11
-6077.325018999999
 21
321.1651030000012
 31
0.0
  0
LINE
  5
53F4
330
53E2
100
AcDbEntity
  8
0
  6
Continuous
100
AcDbLine
 10
-5994.932841
 20
263.7459870000021
 30
0.0
 11
-5985.195741233025
 21
263.2477765815474
 31
0.0
  0
LWPOLYLINE
  5
53F5
330
53E2
100
AcDbEntity
  8
0
  6
Continuous
100
AcDbPolyline
 90
       28
 70
     0
 43
0.0
 10
-3667.307755
 20
882.0562600000013
 10
-3666.505123000001
 20
882.1281010000021
 10
-3665.446065000001
 20
882.250527000002
 10
-3664.398594
 20
882.3994740000015
 10
-3663.365581
 20
882.5745330000009
 10
-3662.349858
 20
882.7752240000027
 10
-3661.354207999999
 20
883.0009980000014
 10
-3660.38136
 20
883.2512350000015
 10
-3659.433982000001
 20
883.5252500000006
 10
-3658.514669
 20
883.8222920000006
 10
-3657.625942000001
 20
884.1415460000025
 10
-3656.770235999998
 20
884.4821370000008
 10
-3655.949897000001
 20
884.8431320000017
 10
-3655.167173000001
 20
885.2235420000015
 10
-3654.424209999999
 20
885.6223230000013
 10
-3653.723044
 20
886.038383000001
 10
-3653.065597999999
 20
886.4705810000014
 10
-3652.453672
 20
886.9177320000018
 10
-3651.888944
 20
887.3786120000023
 10
-3651.372963
 20
887.8519570000007
 10
-3650.907142
 20
888.3364689999998
 10
-3650.492758000001
 20
888.8308200000009
 10
-3650.130947
 20
889.3336560000006
 10
-3649.822701
 20
889.8435980000012
 10
-3649.568864999999
 20
890.3592480000007
 10
-3649.370133999999
 20
890.8791930000024
 10
-3649.227052
 20
891.4020080000009
 10
-3649.140012999998
 20
891.9262610000005
  0
LWPOLYLINE
  5
53F6
330
53E2
100
AcDbEntity
  8
0
  6
Continuous
100
AcDbPolyline
 90
        3
 70
     0
 43
0.0
 10
-3649.140012999998
 20
891.9262610000005
 10
-3649.109255000001
 20
892.4505130000015
 10
-3649.113523999999
 20
892.5376740000011
  0
LWPOLYLINE
  5
53F7
330
53E2
100
AcDbEntity
  8
0
  6
Continuous
100
AcDbPolyline
 90
       30
 70
     0
 43
0.0
 10
-3669.062422000001
 20
884.6021920000003
 10
-3668.850589
 20
884.6102900000023
 10
-3667.777088999999
 20
884.6787420000019
 10
-3666.709346
 20
884.7743120000014
 10
-3665.650287999999
 20
884.8967390000016
 10
-3664.602817000001
 20
885.0456850000009
 10
-3663.569804000001
 20
885.2207440000002
 10
-3662.554081000001
 20
885.4214360000005
 10
-3661.558431
 20
885.6472090000007
 10
-3660.585583
 20
885.8974470000012
 10
-3659.638205000001
 20
886.171462000002
 10
-3658.718891999999
 20
886.4685030000018
 10
-3657.830165000002
 20
886.7877570000018
 10
-3656.974458999999
 20
887.1283490000022
 10
-3656.154120000002
 20
887.4893440000015
 10
-3655.371396
 20
887.8697530000009
 10
-3654.628433
 20
888.2685340000007
 10
-3653.927268
 20
888.6845940000002
 10
-3653.269821
 20
889.1167920000007
 10
-3652.657894999999
 20
889.5639440000014
 10
-3652.093168
 20
890.0248240000019
 10
-3651.577186000001
 20
890.4981680000018
 10
-3651.111364999999
 20
890.982680000001
 10
-3650.696980999999
 20
891.4770320000025
 10
-3650.335171
 20
891.9798670000018
 10
-3650.026925000001
 20
892.4898090000006
 10
-3649.773088
 20
893.0054590000018
 10
-3649.574357
 20
893.5254050000002
 10
-3649.431276000001
 20
894.0482200000005
 10
-3649.344237
 20
894.5724720000017
  0
LWPOLYLINE
  5
53F8
330
53E2
100
AcDbEntity
  8
0
  6
Continuous
100
AcDbPolyline
 90
       42
 70
     0
 43
0.0
 10
-3649.344237
 20
894.5724720000017
 10
-3649.313477999998
 20
895.0967250000012
 10
-3649.339085
 20
895.6195400000014
 10
-3649.420987
 20
896.1394850000015
 10
-3649.558959
 20
896.6551360000012
 10
-3649.752622999999
 20
897.1650770000014
 10
-3650.001449
 20
897.6679130000011
 10
-3650.304753999999
 20
898.1622640000004
 10
-3650.661708
 20
898.6467760000014
 10
-3651.071330000001
 20
899.1201210000017
 10
-3651.5325
 20
899.5810010000022
 10
-3652.043952999998
 20
900.0281520000026
 10
-3652.604287000001
 20
900.4603510000015
 10
-3653.211965000001
 20
900.8764100000025
 10
-3653.865324
 20
901.275192000001
 10
-3654.562571
 20
901.6556010000021
 10
-3655.301796
 20
902.0165960000012
 10
-3656.080973
 20
902.3571870000013
 10
-3656.897965000001
 20
902.6764410000014
 10
-3657.750534000001
 20
902.9734830000016
 10
-3658.636342
 20
903.2474980000007
 10
-3659.552962
 20
903.4977350000026
 10
-3660.497882
 20
903.7235090000013
 10
-3661.468510999999
 20
903.9242000000013
 10
-3662.462189
 20
904.0992590000005
 10
-3663.476192
 20
904.248206000002
 10
-3664.507742
 20
904.3706320000019
 10
-3665.55401
 20
904.4662020000014
 10
-3666.612128999999
 20
904.5346550000013
 10
-3667.679198
 20
904.5758010000009
 10
-3668.752294
 20
904.5895290000007
 10
-3669.828474
 20
904.5758010000009
 10
-3670.904788999999
 20
904.5346550000013
 10
-3671.978289000001
 20
904.4662020000014
 10
-3673.046031
 20
904.3706320000019
 10
-3674.105088999999
 20
904.248206000002
 10
-3675.152560000001
 20
904.0992590000005
 10
-3676.185573000001
 20
903.9242000000013
 10
-3677.201297
 20
903.7235090000013
 10
-3678.196947000001
 20
903.4977350000026
 10
-3679.169794
 20
903.2474980000007
 10
-3680.096136999999
 20
902.9795670000003
  0
LINE
  5
53F9
330
53E2
100
AcDbEntity
  8
0
  6
Continuous
100
AcDbLine
 10
-3649.375962
 20
895.8536469999998
 30
0.0
 11
-3649.113523999999
 21
892.5376740000011
 31
0.0
  0
LWPOLYLINE
  5
53FA
330
53E2
100
AcDbEntity
  8
0
  6
Continuous
100
AcDbPolyline
 90
        3
 70
     0
 43
0.0
 10
-3632.519299
 20
1154.658634000001
 10
-3632.519299
 20
844.6586340000012
 10
-3655.075522999999
 20
844.6586340000012
  0
LINE
  5
53FB
330
53E2
100
AcDbEntity
  8
0
  6
Continuous
100
AcDbLine
 10
-3655.075522999999
 20
823.0595810000012
 30
0.0
 11
-3655.075522999999
 21
885.0956450000012
 31
0.0
  0
LINE
  5
53FC
330
53E2
100
AcDbEntity
  8
0
  6
Continuous
100
AcDbLine
 10
-3597.375487999999
 20
579.6586340000012
 30
0.0
 11
-3632.519299
 21
579.6586340000012
 31
0.0
  0
LWPOLYLINE
  5
53FD
330
53E2
100
AcDbEntity
  8
0
  6
Continuous
100
AcDbPolyline
 90
        5
 70
     0
 43
0.0
 10
-3632.519299
 20
844.6586340000012
 10
-3655.075522999999
 20
823.0595810000012
 10
-3655.497004999999
 20
795.6284900000009
 10
-3632.519299
 20
777.4830390000006
 10
-3632.519299
 20
523.243190000001
  0
LINE
  5
53FE
330
53E2
100
AcDbEntity
  8
0
  6
Continuous
100
AcDbLine
 10
-3662.375488
 20
871.5908410000011
 30
0.0
 11
-3662.375488
 21
525.7405159999998
 31
0.0
  0
LINE
  5
53FF
330
53E2
100
AcDbEntity
  8
0
  6
Continuous
100
AcDbLine
 10
-3702.519298999999
 20
1154.658634000001
 30
0.0
 11
-3702.519298999999
 21
942.8946530000011
 31
0.0
  0
LWPOLYLINE
  5
5400
330
53E2
100
AcDbEntity
  8
0
  6
Continuous
100
AcDbPolyline
 90
        3
 70
     0
 43
0.0
 10
-3632.519299
 20
1154.658634000001
 10
-3742.519299
 20
1154.658634000001
 10
-3746.283601000001
 20
1147.711108000001
  0
LWPOLYLINE
  5
5401
330
53E2
100
AcDbEntity
  8
0
  6
Continuous
100
AcDbPolyline
 90
        3
 70
     0
 43
0.0
 10
-3632.519299
 20
-786.0824089999996
 10
-3632.519299
 20
-886.0824089999995
 10
-3742.519299
 20
-886.0824089999995
  0
LINE
  5
5402
330
53E2
100
AcDbEntity
  8
0
  6
Continuous
100
AcDbLine
 10
-4098.296118
 20
-738.9507409999987
 30
0.0
 11
-4510.296118
 21
-738.9507409999987
 31
0.0
  0
LINE
  5
5403
330
53E2
100
AcDbEntity
  8
0
  6
Continuous
100
AcDbLine
 10
-3793.698925999999
 20
-738.9507409999987
 30
0.0
 11
-4048.296118
 21
-738.9507409999987
 31
0.0
  0
LWPOLYLINE
  5
5404
330
53E2
100
AcDbEntity
  8
0
  6
Continuous
100
AcDbPolyline
 90
        4
 70
     0
 43
0.0
 10
-4560.296118
 20
-738.9507409999987
 10
-4576.002440999999
 20
-738.9507409999987
 10
-4978.838623
 20
-819.5625569999984
 10
-5000.284301
 20
-865.3770109999987
  0
LINE
  5
5405
330
53E2
100
AcDbEntity
  8
0
  6
Continuous
100
AcDbLine
 10
-4098.296118
 20
988.2680090000013
 30
0.0
 11
-4510.296118
 21
988.2680090000013
 31
0.0
  0
LINE
  5
5406
330
53E2
100
AcDbEntity
  8
0
  6
Continuous
100
AcDbLine
 10
-3793.698925999999
 20
988.2680090000013
 30
0.0
 11
-4048.296118
 21
988.2680090000013
 31
0.0
  0
LWPOLYLINE
  5
5407
330
53E2
100
AcDbEntity
  8
0
  6
Continuous
100
AcDbPolyline
 90
        4
 70
     0
 43
0.0
 10
-4560.296118
 20
988.2680090000013
 10
-4576.002440999999
 20
988.2680090000013
 10
-4967.346190999998
 20
1072.285587000002
 10
-4979.947753999999
 20
1095.389103000001
  0
LINE
  5
5408
330
53E2
100
AcDbEntity
  8
0
  6
Continuous
100
AcDbLine
 10
-4048.296118
 20
192.6312100000014
 30
0.0
 11
-4048.296118
 21
-68.34136599999874
 31
0.0
  0
LINE
  5
5409
330
53E2
100
AcDbEntity
  8
0
  6
Continuous
100
AcDbLine
 10
-4098.296118
 20
545.4063800000003
 30
0.0
 11
-4098.296118
 21
998.6586340000012
 31
0.0
  0
LINE
  5
540A
330
53E2
100
AcDbEntity
  8
0
  6
Continuous
100
AcDbLine
 10
-4510.296118
 20
214.6146860000008
 30
0.0
 11
-4510.296118
 21
-68.34136599999874
 31
0.0
  0
LINE
  5
540B
330
53E2
100
AcDbEntity
  8
0
  6
Continuous
100
AcDbLine
 10
-4560.296118
 20
567.3898550000012
 30
0.0
 11
-4560.296118
 21
996.6586340000013
 31
0.0
  0
LINE
  5
540C
330
53E2
100
AcDbEntity
  8
0
  6
Continuous
100
AcDbLine
 10
-4048.296118
 20
-304.3413659999988
 30
0.0
 11
-4048.296118
 21
-98.34136599999874
 31
0.0
  0
LINE
  5
540D
330
53E2
100
AcDbEntity
  8
0
  6
Continuous
100
AcDbLine
 10
-4048.296118
 20
-525.3413659999987
 30
0.0
 11
-4048.296118
 21
-310.3413659999987
 31
0.0
  0
LINE
  5
540E
330
53E2
100
AcDbEntity
  8
0
  6
Continuous
100
AcDbLine
 10
-4098.296118
 20
-310.3413659999987
 30
0.0
 11
-4098.296118
 21
-525.3413659999987
 31
0.0
  0
LINE
  5
540F
330
53E2
100
AcDbEntity
  8
0
  6
Continuous
100
AcDbLine
 10
-4098.296118
 20
-98.34136599999874
 30
0.0
 11
-4098.296118
 21
-304.3413659999988
 31
0.0
  0
LINE
  5
5410
330
53E2
100
AcDbEntity
  8
0
  6
Continuous
100
AcDbLine
 10
-4510.296026999998
 20
-304.3413659999988
 30
0.0
 11
-4510.296026999998
 21
-98.34136599999874
 31
0.0
  0
LINE
  5
5411
330
53E2
100
AcDbEntity
  8
0
  6
Continuous
100
AcDbLine
 10
-4510.296026999998
 20
-525.3413659999987
 30
0.0
 11
-4510.296026999998
 21
-310.3413659999987
 31
0.0
  0
LINE
  5
5412
330
53E2
100
AcDbEntity
  8
0
  6
Continuous
100
AcDbLine
 10
-4560.296027
 20
-310.3413659999987
 30
0.0
 11
-4560.296027
 21
-525.3413659999987
 31
0.0
  0
LINE
  5
5413
330
53E2
100
AcDbEntity
  8
0
  6
Continuous
100
AcDbLine
 10
-4560.296027
 20
-98.34136599999874
 30
0.0
 11
-4560.296027
 21
-304.3413659999988
 31
0.0
  0
LWPOLYLINE
  5
5414
330
53E2
100
AcDbEntity
  8
0
  6
Continuous
100
AcDbPolyline
 90
        9
 70
     0
 43
0.0
 10
-4903.296118
 20
-438.7413659999984
 10
-4815.296118
 20
-540.3413659999987
 10
-3671.296118
 20
-540.3413659999987
 10
-3583.296118000001
 20
-438.7413659999984
 10
-3583.296118000001
 20
-184.9413659999991
 10
-3671.296118
 20
-83.34136599999874
 10
-4815.296118
 20
-83.34136599999874
 10
-4903.296118
 20
-184.9413659999991
 10
-4903.296118
 20
-438.7413659999984
  0
LWPOLYLINE
  5
5415
330
53E2
100
AcDbEntity
  8
0
  6
Continuous
100
AcDbPolyline
 90
        5
 70
     0
 43
0.0
 10
-4888.296118
 20
-310.3413659999987
 10
-3598.296118
 20
-310.3413659999987
 10
-3598.296118
 20
-304.3413659999988
 10
-4888.296118
 20
-304.3413659999988
 10
-4888.296118
 20
-310.3413659999987
  0
ARC
  5
5416
330
53E2
100
AcDbEntity
  8
0
  6
Continuous
100
AcDbCircle
 10
-4753.296118
 20
-390.3413659999987
 30
0.0
 40
165.0
100
AcDbArc
 50
180.0
 51
270.0
  0
LINE
  5
5417
330
53E2
100
AcDbEntity
  8
0
  6
Continuous
100
AcDbLine
 10
-4918.296118
 20
-390.3413659999987
 30
0.0
 11
-4918.296118
 21
-233.3413659999987
 31
0.0
  0
ARC
  5
5418
330
53E2
100
AcDbEntity
  8
0
  6
Continuous
100
AcDbCircle
 10
-3733.296118000001
 20
-390.3413659999987
 30
0.0
 40
165.0
100
AcDbArc
 50
270.0
 51
0.0
  0
LINE
  5
5419
330
53E2
100
AcDbEntity
  8
0
  6
Continuous
100
AcDbLine
 10
-3733.296118000001
 20
-555.3413659999987
 30
0.0
 11
-4753.296118
 21
-555.3413659999987
 31
0.0
  0
ARC
  5
541A
330
53E2
100
AcDbEntity
  8
0
  6
Continuous
100
AcDbCircle
 10
-3733.296118000001
 20
-233.3413659999987
 30
0.0
 40
165.0
100
AcDbArc
 50
0.0
 51
90.0
  0
LINE
  5
541B
330
53E2
100
AcDbEntity
  8
0
  6
Continuous
100
AcDbLine
 10
-3568.296118
 20
-233.3413659999987
 30
0.0
 11
-3568.296118
 21
-390.3413659999987
 31
0.0
  0
ARC
  5
541C
330
53E2
100
AcDbEntity
  8
0
  6
Continuous
100
AcDbCircle
 10
-4753.296118
 20
-233.3413659999987
 30
0.0
 40
165.0
100
AcDbArc
 50
90.0
 51
180.0
  0
LINE
  5
541D
330
53E2
100
AcDbEntity
  8
0
  6
Continuous
100
AcDbLine
 10
-4753.296118
 20
-68.34136599999874
 30
0.0
 11
-3733.296118000001
 21
-68.34136599999874
 31
0.0
  0
ARC
  5
541E
330
53E2
100
AcDbEntity
  8
0
  6
Continuous
100
AcDbCircle
 10
-4753.296118
 20
-390.3413659999987
 30
0.0
 40
135.0
100
AcDbArc
 50
180.0
 51
270.0
  0
LINE
  5
541F
330
53E2
100
AcDbEntity
  8
0
  6
Continuous
100
AcDbLine
 10
-4888.296118
 20
-390.3413659999987
 30
0.0
 11
-4888.296118
 21
-233.3413659999987
 31
0.0
  0
ARC
  5
5420
330
53E2
100
AcDbEntity
  8
0
  6
Continuous
100
AcDbCircle
 10
-3733.296118000001
 20
-390.3413659999987
 30
0.0
 40
135.0
100
AcDbArc
 50
270.0
 51
0.0
  0
LINE
  5
5421
330
53E2
100
AcDbEntity
  8
0
  6
Continuous
100
AcDbLine
 10
-3733.296118000001
 20
-525.3413659999987
 30
0.0
 11
-4753.296118
 21
-525.3413659999987
 31
0.0
  0
ARC
  5
5422
330
53E2
100
AcDbEntity
  8
0
  6
Continuous
100
AcDbCircle
 10
-3733.296118000001
 20
-233.3413659999987
 30
0.0
 40
135.0
100
AcDbArc
 50
0.0
 51
90.0
  0
LINE
  5
5423
330
53E2
100
AcDbEntity
  8
0
  6
Continuous
100
AcDbLine
 10
-3598.296118
 20
-233.3413659999987
 30
0.0
 11
-3598.296118
 21
-390.3413659999987
 31
0.0
  0
ARC
  5
5424
330
53E2
100
AcDbEntity
  8
0
  6
Continuous
100
AcDbCircle
 10
-4753.296118
 20
-233.3413659999987
 30
0.0
 40
135.0
100
AcDbArc
 50
90.0
 51
180.0
  0
LINE
  5
5425
330
53E2
100
AcDbEntity
  8
0
  6
Continuous
100
AcDbLine
 10
-4753.296118
 20
-98.34136599999874
 30
0.0
 11
-3733.296118000001
 21
-98.34136599999874
 31
0.0
  0
LINE
  5
5426
330
53E2
100
AcDbEntity
  8
0
  6
Continuous
100
AcDbLine
 10
-4017.726638
 20
1005.134006000002
 30
0.0
 11
-4422.726638
 21
1002.953227000002
 31
0.0
  0
LWPOLYLINE
  5
5427
330
53E2
100
AcDbEntity
  8
0
  6
Continuous
100
AcDbPolyline
 90
        4
 70
     0
 43
0.0
 10
-3937.726638
 20
999.5646900000011
 10
-3920.263809999999
 20
999.6587210000015
 10
-3920.296118
 20
1005.658634000001
 10
-3937.726638
 20
1005.564777000001
  0
LWPOLYLINE
  5
5428
330
53E2
100
AcDbEntity
  8
0
  6
Continuous
100
AcDbPolyline
 90
        3
 70
     0
 43
0.0
 10
-4502.726638
 20
1002.522456000001
 10
-4570.293245999999
 20
1002.158634000001
 10
-4570.260937999999
 20
996.1587210000017
  0
LINE
  5
5429
330
53E2
100
AcDbEntity
  8
0
  6
Continuous
100
AcDbLine
 10
-4422.726638
 20
996.9531400000015
 30
0.0
 11
-4017.726638
 21
999.1339189999999
 31
0.0
  0
LINE
  5
542A
330
53E2
100
AcDbEntity
  8
0
  6
Continuous
100
AcDbLine
 10
-4098.296118
 20
-749.3413659999987
 30
0.0
 11
-4098.296118
 21
-555.3413659999987
 31
0.0
  0
LINE
  5
542B
330
53E2
100
AcDbEntity
  8
0
  6
Continuous
100
AcDbLine
 10
-4048.296118
 20
-555.3413659999987
 30
0.0
 11
-4048.296118
 21
-749.3413659999987
 31
0.0
  0
LINE
  5
542C
330
53E2
100
AcDbEntity
  8
0
  6
Continuous
100
AcDbLine
 10
-4048.296118
 20
998.6586340000012
 30
0.0
 11
-4048.296118
 21
543.0272150000019
 31
0.0
  0
LINE
  5
542D
330
53E2
100
AcDbEntity
  8
0
  6
Continuous
100
AcDbLine
 10
-4098.296118
 20
-68.34136599999874
 30
0.0
 11
-4098.296118
 21
195.0103740000013
 31
0.0
  0
LINE
  5
542E
330
53E2
100
AcDbEntity
  8
0
  6
Continuous
100
AcDbLine
 10
-4510.296118
 20
996.6586340000013
 30
0.0
 11
-4510.296118
 21
565.0106910000013
 31
0.0
  0
LINE
  5
542F
330
53E2
100
AcDbEntity
  8
0
  6
Continuous
100
AcDbLine
 10
-4560.296118
 20
-69.84117199999855
 30
0.0
 11
-4560.296118
 21
216.9938500000007
 31
0.0
  0
LINE
  5
5430
330
53E2
100
AcDbEntity
  8
0
  6
Continuous
100
AcDbLine
 10
-4510.296118
 20
-555.3413659999987
 30
0.0
 11
-4510.296118
 21
-747.3413659999987
 31
0.0
  0
LINE
  5
5431
330
53E2
100
AcDbEntity
  8
0
  6
Continuous
100
AcDbLine
 10
-4560.296118
 20
-747.3413659999987
 30
0.0
 11
-4560.296118
 21
-553.8415599999989
 31
0.0
  0
LINE
  5
5432
330
53E2
100
AcDbEntity
  8
0
  6
Continuous
100
AcDbLine
 10
-4570.260937999999
 20
996.1587210000017
 30
0.0
 11
-4502.726638
 21
996.5223690000001
 31
0.0
  0
LWPOLYLINE
  5
5433
330
53E2
100
AcDbEntity
  8
0
  6
Continuous
100
AcDbPolyline
 90
        5
 70
     0
 43
0.0
 10
-4098.296118
 20
1004.658634000001
 10
-4048.296118
 20
1004.658634000001
 10
-4048.296118
 20
998.6586340000012
 10
-4098.296118
 20
998.6586340000012
 10
-4098.296118
 20
1004.658634000001
  0
LWPOLYLINE
  5
5434
330
53E2
100
AcDbEntity
  8
0
  6
Continuous
100
AcDbPolyline
 90
        5
 70
     0
 43
0.0
 10
-4560.296118
 20
1002.658634000001
 10
-4510.296118
 20
1002.658634000001
 10
-4510.296118
 20
996.6586340000013
 10
-4560.296118
 20
996.6586340000013
 10
-4560.296118
 20
1002.658634000001
  0
LWPOLYLINE
  5
5435
330
53E2
100
AcDbEntity
  8
0
  6
Continuous
100
AcDbPolyline
 90
        5
 70
     0
 43
0.0
 10
-4560.296118
 20
-753.3413659999987
 10
-4510.296118
 20
-753.3413659999987
 10
-4510.296118
 20
-747.3413659999987
 10
-4560.296118
 20
-747.3413659999987
 10
-4560.296118
 20
-753.3413659999987
  0
LWPOLYLINE
  5
5436
330
53E2
100
AcDbEntity
  8
0
  6
Continuous
100
AcDbPolyline
 90
        5
 70
     0
 43
0.0
 10
-4098.296118
 20
-755.3413659999987
 10
-4048.296118
 20
-755.3413659999987
 10
-4048.296118
 20
-749.3413659999987
 10
-4098.296118
 20
-749.3413659999987
 10
-4098.296118
 20
-755.3413659999987
  0
LWPOLYLINE
  5
5437
330
53E2
100
AcDbEntity
  8
0
  6
Continuous
100
AcDbPolyline
 90
        5
 70
     0
 43
0.0
 10
-4017.726638
 20
994.3895250000005
 10
-3937.726638
 20
994.3895250000005
 10
-3937.726638
 20
1016.889525
 10
-4017.726638
 20
1016.889525
 10
-4017.726638
 20
994.3895250000005
  0
LWPOLYLINE
  5
5438
330
53E2
100
AcDbEntity
  8
0
  6
Continuous
100
AcDbPolyline
 90
        5
 70
     0
 43
0.0
 10
-4502.726638
 20
991.6180010000006
 10
-4422.726638
 20
991.6180010000006
 10
-4422.726638
 20
1014.118001000001
 10
-4502.726638
 20
1014.118001000001
 10
-4502.726638
 20
991.6180010000006
  0
LINE
  5
5439
330
53E2
100
AcDbEntity
  8
0
  6
Continuous
100
AcDbLine
 10
-3259.375488
 20
24.65863400000126
 30
0.0
 11
-3259.375488
 21
155.0917780000018
 31
0.0
  0
LINE
  5
543A
330
53E2
100
AcDbEntity
  8
0
  6
Continuous
100
AcDbLine
 10
-3049.375488
 20
145.0992890000016
 30
0.0
 11
-3049.375488
 21
24.65863400000126
 31
0.0
  0
LWPOLYLINE
  5
543B
330
53E2
100
AcDbEntity
  8
0
  6
Continuous
100
AcDbPolyline
 90
        3
 70
     0
 43
0.0
 10
-3046.875488
 20
603.8194260000018
 10
-3120.375488
 20
603.8194260000018
 10
-3120.375488
 20
527.9586340000005
  0
LWPOLYLINE
  5
543C
330
53E2
100
AcDbEntity
  8
0
  6
Continuous
100
AcDbPolyline
 90
        3
 70
     0
 43
0.0
 10
-3424.375488
 20
513.3390250000011
 10
-3424.375488
 20
525.6586340000012
 10
-3259.375488
 20
525.6586340000012
  0
LINE
  5
543D
330
53E2
100
AcDbEntity
  8
0
  6
Continuous
100
AcDbLine
 10
-3422.075488000001
 20
513.2295840000006
 30
0.0
 11
-3422.075488000001
 21
525.6586340000012
 31
0.0
  0
LWPOLYLINE
  5
543E
330
53E2
100
AcDbEntity
  8
0
  6
Continuous
100
AcDbPolyline
 90
        4
 70
     0
 43
0.0
 10
-3259.375488
 20
505.4877840000008
 10
-3259.375488
 20
527.9586340000005
 10
-3049.375488
 20
527.9586340000005
 10
-3049.375488
 20
504.6586340000012
  0
LINE
  5
543F
330
53E2
100
AcDbEntity
  8
0
  6
Continuous
100
AcDbLine
 10
-3424.375488
 20
520.6586340000012
 30
0.0
 11
-3422.075488000001
 21
520.6586340000012
 31
0.0
  0
LINE
  5
5440
330
53E2
100
AcDbEntity
  8
0
  6
Continuous
100
AcDbLine
 10
-3424.375488
 20
-271.3413659999988
 30
0.0
 11
-3422.075488000001
 21
-271.3413659999988
 31
0.0
  0
ARC
  5
5441
330
53E2
100
AcDbEntity
  8
0
  6
Continuous
100
AcDbCircle
 10
-3079.375488
 20
474.6586340000012
 30
0.0
 40
30.0
100
AcDbArc
 50
90.0
 51
129.4334681999538
  0
LINE
  5
5442
330
53E2
100
AcDbEntity
  8
0
  6
Continuous
100
AcDbLine
 10
-3049.375488
 20
504.6586340000012
 30
0.0
 11
-3079.375488
 21
504.6586340000012
 31
0.0
  0
LINE
  5
5443
330
53E2
100
AcDbEntity
  8
0
  6
Continuous
100
AcDbLine
 10
-3422.075488000001
 20
-276.3413659999987
 30
0.0
 11
-3422.075488000001
 21
162.8335780000015
 31
0.0
  0
LWPOLYLINE
  5
5444
330
53E2
100
AcDbEntity
  8
0
  6
Continuous
100
AcDbPolyline
 90
        3
 70
     0
 43
0.0
 10
-3367.875488
 20
-276.3413659999987
 10
-3424.375488
 20
-276.3413659999987
 10
-3424.375488
 20
162.9430200000006
  0
LINE
  5
5445
330
53E2
100
AcDbEntity
  8
0
  6
Continuous
100
AcDbLine
 10
1272.124512
 20
1121.914445
 30
0.0
 11
1272.124512
 21
1135.174106
 31
0.0
  0
LINE
  5
5446
330
53E2
100
AcDbEntity
  8
0
  6
Continuous
100
AcDbLine
 10
1272.124512
 20
1007.278838000002
 30
0.0
 11
1272.124512
 21
1111.914445
 31
0.0
  0
LINE
  5
5447
330
53E2
100
AcDbEntity
  8
0
  6
Continuous
100
AcDbLine
 10
1272.124512
 20
-872.5971769999986
 30
0.0
 11
1272.124512
 21
-885.8568379999988
 31
0.0
  0
LINE
  5
5448
330
53E2
100
AcDbEntity
  8
0
  6
Continuous
100
AcDbLine
 10
1272.124512
 20
-757.9615699999995
 30
0.0
 11
1272.124512
 21
-862.5971769999987
 31
0.0
  0
ARC
  5
5449
330
53E2
100
AcDbEntity
  8
0
  6
Continuous
100
AcDbCircle
 10
-5399.447694
 20
11.26744600000165
 30
0.0
 40
2.0
100
AcDbArc
 50
59.16305762003643
 51
150.5951537999548
  0
ARC
  5
544A
330
53E2
100
AcDbEntity
  8
0
  6
Continuous
100
AcDbCircle
 10
-1458.0708
 20
227.9594150000012
 30
0.0
 40
3697.587158
100
AcDbArc
 50
179.8312499000154
 51
180.4932294999896
  0
ARC
  5
544B
330
53E2
100
AcDbEntity
  8
0
  6
Continuous
100
AcDbCircle
 10
-1458.0708
 20
227.9594150000012
 30
0.0
 40
3697.587158
100
AcDbArc
 50
167.9186554000017
 51
174.176746400015
  0
ARC
  5
544C
330
53E2
100
AcDbEntity
  8
0
  6
Continuous
100
AcDbCircle
 10
-1486.664061999999
 20
225.5243570000021
 30
0.0
 40
3697.587158
100
AcDbArc
 50
179.6721695999757
 51
180.4345783999751
  0
ARC
  5
544D
330
53E2
100
AcDbEntity
  8
0
  6
Continuous
100
AcDbCircle
 10
-1486.664061999999
 20
225.5243570000021
 30
0.0
 40
3697.587158
100
AcDbArc
 50
167.9009552000316
 51
174.2081192000013
  0
ARC
  5
544E
330
53E2
100
AcDbEntity
  8
0
  6
Continuous
100
AcDbCircle
 10
-1559.492675999999
 20
225.5243570000021
 30
0.0
 40
3697.587158
100
AcDbArc
 50
179.5638338999781
 51
180.3813399000111
  0
ARC
  5
544F
330
53E2
100
AcDbEntity
  8
0
  6
Continuous
100
AcDbCircle
 10
-1559.492675999999
 20
225.5243570000021
 30
0.0
 40
3697.587158
100
AcDbArc
 50
167.8759918000172
 51
174.3306516999983
  0
ARC
  5
5450
330
53E2
100
AcDbEntity
  8
0
  6
Continuous
100
AcDbCircle
 10
-1424.465332
 20
225.8598060000004
 30
0.0
 40
3697.587158
100
AcDbArc
 50
180.188589900005
 51
180.4852487000034
  0
ARC
  5
5451
330
53E2
100
AcDbEntity
  8
0
  6
Continuous
100
AcDbCircle
 10
-1424.465332
 20
225.8598060000004
 30
0.0
 40
3697.587158
100
AcDbArc
 50
168.22673029997
 51
173.8321277000046
  0
ARC
  5
5452
330
53E2
100
AcDbEntity
  8
0
  6
Continuous
100
AcDbCircle
 10
-1404.465332
 20
225.8598060000004
 30
0.0
 40
3697.587158
100
AcDbArc
 50
180.2033388999959
 51
180.49987010001
  0
ARC
  5
5453
330
53E2
100
AcDbEntity
  8
0
  6
Continuous
100
AcDbCircle
 10
-1404.465332
 20
225.8598060000004
 30
0.0
 40
3697.587158
100
AcDbArc
 50
168.2908935999849
 51
173.8468839999739
  0
LINE
  5
5454
330
53E2
100
AcDbEntity
  8
0
  6
Continuous
100
AcDbLine
 10
-5113.010865999999
 20
31.14355500000056
 30
0.0
 11
-5112.431456999999
 21
43.42990100000133
 31
0.0
  0
LINE
  5
5455
330
53E2
100
AcDbEntity
  8
0
  6
Continuous
100
AcDbLine
 10
-5116.926460999999
 20
43.64188000000104
 30
0.0
 11
-5117.505869999999
 21
31.35553400000208
 31
0.0
  0
LINE
  5
5456
330
53E2
100
AcDbEntity
  8
0
  6
Continuous
100
AcDbLine
 10
-6101.911841999999
 20
77.77894100000048
 30
0.0
 11
-6101.332432999999
 21
90.06528700000126
 31
0.0
  0
LINE
  5
5457
330
53E2
100
AcDbEntity
  8
0
  6
Continuous
100
AcDbLine
 10
-6096.837427999999
 20
89.85330800000156
 30
0.0
 11
-6097.416838
 21
77.56696200000078
 31
0.0
  0
LINE
  5
5458
330
53E2
100
AcDbEntity
  8
0
  6
Continuous
100
AcDbLine
 10
-5493.756875999999
 20
321.4788620000017
 30
0.0
 11
-5515.732014
 21
322.5245110000015
 31
0.0
  0
LINE
  5
5459
330
53E2
100
AcDbEntity
  8
0
  6
Continuous
100
AcDbLine
 10
-5423.563209999998
 20
318.1388170000009
 30
0.0
 11
-5485.765916
 21
321.0986250000005
 31
0.0
  0
LWPOLYLINE
  5
545A
330
53E2
100
AcDbEntity
  8
0
  6
Continuous
100
AcDbPolyline
 90
        5
 70
     0
 43
0.0
 10
-5414.540743999999
 20
593.0206450000005
 10
-5414.255567
 20
599.0138640000004
 10
-5397.330961
 20
622.2356909999998
 10
-5284.341381
 20
616.859276000001
 10
-5277.181566999999
 20
592.6003170000003
  0
LINE
  5
545B
330
53E2
100
AcDbEntity
  8
0
  6
Continuous
100
AcDbLine
 10
-5414.540743999999
 20
593.0206450000005
 30
0.0
 11
-5410.608935
 21
592.8335570000017
 31
0.0
  0
LINE
  5
545C
330
53E2
100
AcDbEntity
  8
0
  6
Continuous
100
AcDbLine
 10
-5419.290451999999
 20
281.085852000002
 30
0.0
 11
-5405.412346999999
 21
575.3703620000014
 31
0.0
  0
LWPOLYLINE
  5
545D
330
53E2
100
AcDbEntity
  8
0
  6
Continuous
100
AcDbPolyline
 90
        5
 70
     0
 43
0.0
 10
-5426.22697
 20
261.6539250000005
 10
-4984.991467
 20
240.845787000002
 10
-4969.088329
 20
578.0710090000011
 10
-5410.323832
 20
598.8791470000014
 10
-5426.22697
 20
261.6539250000005
  0
LWPOLYLINE
  5
545E
330
53E2
100
AcDbEntity
  8
0
  6
Continuous
100
AcDbPolyline
 90
       11
 70
     0
 43
0.0
 10
-4247.875488
 20
-955.3413659999987
 10
-4293.680262
 20
-952.7641109999986
 10
-4361.026088
 20
-946.9911729999976
 10
-4412.595416999998
 20
-942.7574799999984
 10
-4459.159894
 20
-937.7557009999982
 10
-4502.648953
 20
-932.366805999999
 10
-4530.355368999999
 20
-927.7490689999986
 10
-4559.604104
 20
-916.5903079999988
 10
-4571.918067000001
 20
-906.5836769999988
 10
-4587.697635999999
 20
-888.880818999999
 10
-4598.142087999998
 20
-872.8413659999986
  0
LWPOLYLINE
  5
545F
330
53E2
100
AcDbEntity
  8
0
  6
Continuous
100
AcDbPolyline
 90
       11
 70
     0
 43
0.0
 10
-4247.875488
 20
1204.658634000001
 10
-4293.680262
 20
1202.081379000001
 10
-4361.026088
 20
1196.308441000001
 10
-4412.595416999998
 20
1192.074748000001
 10
-4459.159894
 20
1187.072969000001
 10
-4502.648953
 20
1181.684074000002
 10
-4530.355368999999
 20
1177.066337000002
 10
-4559.604104
 20
1165.907576000001
 10
-4571.918067000001
 20
1155.900945000001
 10
-4587.697635999999
 20
1138.198087000001
 10
-4598.142087999998
 20
1122.158634000001
  0
ARC
  5
5460
330
53E2
100
AcDbEntity
  8
0
  6
Continuous
100
AcDbCircle
 10
-4976.146972000001
 20
-716.7944909999987
 30
0.0
 40
50.0
100
AcDbArc
 50
242.3233553999772
 51
281.3099365000216
  0
ARC
  5
5461
330
53E2
100
AcDbEntity
  8
0
  6
Continuous
100
AcDbCircle
 10
-4976.146972000001
 20
-716.7944909999987
 30
0.0
 40
50.0
100
AcDbArc
 50
191.709106400015
 51
210.6996453000068
  0
LINE
  5
5462
330
53E2
100
AcDbEntity
  8
0
  6
Continuous
100
AcDbLine
 10
1900.489961999999
 20
279.7984810000016
 30
0.0
 11
1860.346202
 21
281.7177850000025
 31
0.0
  0
LINE
  5
5463
330
53E2
100
AcDbEntity
  8
0
  6
Continuous
100
AcDbLine
 10
1881.865032000001
 20
-109.7565369999975
 30
0.0
 11
1841.809692000001
 21
-107.8414599999978
 31
0.0
  0
LWPOLYLINE
  5
5464
330
53E2
100
AcDbEntity
  8
0
  6
Continuous
100
AcDbPolyline
 90
        3
 70
     0
 43
0.0
 10
-5008.433783999999
 20
208.2837670000008
 10
-5006.370352
 20
208.1855820000019
 10
-4998.852029
 20
231.8549900000016
  0
LWPOLYLINE
  5
5465
330
53E2
100
AcDbEntity
  8
0
  6
Continuous
100
AcDbPolyline
 90
        5
 70
     0
 43
0.0
 10
-5156.058988999999
 20
239.3354130000025
 10
-5155.773922999999
 20
245.3286370000005
 10
-4819.154677999999
 20
229.3111890000018
 10
-4819.439855000001
 20
223.3179700000019
 10
-5001.658980999998
 20
231.9885540000014
  0
LWPOLYLINE
  5
5466
330
53E2
100
AcDbEntity
  8
0
  6
Continuous
100
AcDbPolyline
 90
        4
 70
     0
 43
0.0
 10
-5156.058988999999
 20
239.3354130000025
 10
-5134.548741
 20
214.2847300000012
 10
-5008.433783999999
 20
208.2837670000008
 10
-5001.658980999998
 20
231.9885540000014
  0
LINE
  5
5467
330
53E2
100
AcDbEntity
  8
0
  6
Continuous
100
AcDbLine
 10
-3825.625984000001
 20
532.431840000001
 30
0.0
 11
-5139.138596999999
 21
594.9330790000021
 31
0.0
  0
LWPOLYLINE
  5
5468
330
53E2
100
AcDbEntity
  8
0
  6
Continuous
100
AcDbPolyline
 90
        3
 70
     0
 43
0.0
 10
-3521.906006
 20
-820.3413659999988
 10
-3521.906006
 20
-486.2259049999984
 10
-3573.683146
 20
-432.1588189999992
  0
LINE
  5
5469
330
53E2
100
AcDbEntity
  8
0
  6
Continuous
100
AcDbLine
 10
-3656.906005999999
 20
-536.593034999998
 30
0.0
 11
-3656.906005999999
 21
-730.3413659999987
 31
0.0
  0
LINE
  5
546A
330
53E2
100
AcDbEntity
  8
0
  6
Continuous
100
AcDbLine
 10
-3541.906006
 20
-780.3413659999987
 30
0.0
 11
-3541.906006
 21
-465.3413659999987
 31
0.0
  0
LWPOLYLINE
  5
546B
330
53E2
100
AcDbEntity
  8
0
  6
Continuous
100
AcDbPolyline
 90
        4
 70
     0
 43
0.0
 10
-3456.875488
 20
-90.34136599999873
 10
-3495.875488
 20
-180.3413659999987
 10
-3495.875488
 20
-330.3413659999987
 10
-3568.296118
 20
-330.3413659999987
  0
LINE
  5
546C
330
53E2
100
AcDbEntity
  8
0
  6
Continuous
100
AcDbLine
 10
-3477.647949
 20
-90.34136599999873
 30
0.0
 11
-3650.979655000001
 21
-90.34136599999873
 31
0.0
  0
LINE
  5
546D
330
53E2
100
AcDbEntity
  8
0
  6
Continuous
100
AcDbLine
 10
-3662.339470000001
 20
-539.3049659999987
 30
0.0
 11
-3662.336181000001
 21
-619.5425379999988
 31
0.0
  0
LINE
  5
546E
330
53E2
100
AcDbEntity
  8
0
  6
Continuous
100
AcDbLine
 10
-3662.36876
 20
175.3403960000014
 30
0.0
 11
-3662.358115000001
 21
-84.36888599999837
 31
0.0
  0
LINE
  5
546F
330
53E2
100
AcDbEntity
  8
0
  6
Continuous
100
AcDbLine
 10
-3733.299315999999
 20
124.3226960000011
 30
0.0
 11
-3733.299315999999
 21
-68.34136599999874
 31
0.0
  0
ARC
  5
5470
330
53E2
100
AcDbEntity
  8
0
  6
Continuous
100
AcDbCircle
 10
1454.528902
 20
15.43597800000134
 30
0.0
 40
6173.366211
100
AcDbArc
 50
185.3050322000244
 51
186.3191242000229
  0
ARC
  5
5471
330
53E2
100
AcDbEntity
  8
0
  6
Continuous
100
AcDbCircle
 10
1454.528902
 20
15.43597800000134
 30
0.0
 40
6173.366211
100
AcDbArc
 50
178.989349400014
 51
180.7775718000033
  0
ARC
  5
5472
330
53E2
100
AcDbEntity
  8
0
  6
Continuous
100
AcDbCircle
 10
1434.528902
 20
15.43597800000134
 30
0.0
 40
6173.366211
100
AcDbArc
 50
185.3050322000244
 51
186.3392903999812
  0
ARC
  5
5473
330
53E2
100
AcDbEntity
  8
0
  6
Continuous
100
AcDbCircle
 10
1434.528902
 20
15.43597800000134
 30
0.0
 40
6173.366211
100
AcDbArc
 50
178.989349400014
 51
180.7775718000033
  0
LWPOLYLINE
  5
5474
330
53E2
100
AcDbEntity
  8
0
  6
Continuous
100
AcDbPolyline
 90
        5
 70
     0
 43
0.0
 10
-2887.875488
 20
1111.158634000001
 10
-2893.875488
 20
1111.158634000001
 10
-2893.875488
 20
1046.158634000001
 10
-2884.875488
 20
1046.158634000001
 10
-2884.875488
 20
1047.898052000002
  0
LINE
  5
5475
330
53E2
100
AcDbEntity
  8
0
  6
Continuous
100
AcDbLine
 10
-2873.849509
 20
112.6431030000003
 30
0.0
 11
-2874.146217999999
 21
106.3514070000019
 31
0.0
  0
ARC
  5
5476
330
53E2
100
AcDbEntity
  8
0
  6
Continuous
100
AcDbCircle
 10
-5068.486572
 20
-725.8276939999987
 30
0.0
 40
109.4948578
100
AcDbArc
 50
208.4262438000119
 51
231.5076293999919
  0
ARC
  5
5477
330
53E2
100
AcDbEntity
  8
0
  6
Continuous
100
AcDbCircle
 10
-5068.486572
 20
-725.8276939999987
 30
0.0
 40
109.4948578
100
AcDbArc
 50
196.484987399982
 51
197.4911500999907
  0
ARC
  5
5478
330
53E2
100
AcDbEntity
  8
0
  6
Continuous
100
AcDbCircle
 10
-1404.465332
 20
23.45746200000212
 30
0.0
 40
3697.587158
100
AcDbArc
 50
190.8020717999871
 51
191.709106400015
  0
ARC
  5
5479
330
53E2
100
AcDbEntity
  8
0
  6
Continuous
100
AcDbCircle
 10
-1424.465332
 20
23.45746200000212
 30
0.0
 40
3697.587158
100
AcDbArc
 50
191.0502417000196
 51
191.9374853000165
  0
ARC
  5
547A
330
53E2
100
AcDbEntity
  8
0
  6
Continuous
100
AcDbCircle
 10
-1458.0708
 20
21.35785300000134
 30
0.0
 40
3697.587158
100
AcDbArc
 50
191.180641599983
 51
191.878565199969
  0
ARC
  5
547B
330
53E2
100
AcDbEntity
  8
0
  6
Continuous
100
AcDbCircle
 10
-1486.664061999999
 20
23.79291100000046
 30
0.0
 40
3697.587158
100
AcDbArc
 50
191.2034738999895
 51
191.8959554000186
  0
ARC
  5
547C
330
53E2
100
AcDbEntity
  8
0
  6
Continuous
100
AcDbCircle
 10
-1559.492675999999
 20
23.79291100000046
 30
0.0
 40
3697.587158
100
AcDbArc
 50
191.1487156000098
 51
191.8410570999709
  0
LINE
  5
547D
330
53E2
100
AcDbEntity
  8
0
  6
Continuous
100
AcDbLine
 10
-5022.773090000001
 20
1403.165360000002
 30
0.0
 11
-5061.028667999999
 21
1217.056492000001
 31
0.0
  0
LINE
  5
547E
330
53E2
100
AcDbEntity
  8
0
  6
Continuous
100
AcDbLine
 10
-5017.875488
 20
1402.158634000001
 30
0.0
 11
-5056.131066
 21
1216.049766
 31
0.0
  0
LINE
  5
547F
330
53E2
100
AcDbEntity
  8
0
  6
Continuous
100
AcDbLine
 10
-5100.548296999999
 20
1372.459881000001
 30
0.0
 11
-5120.38631
 21
1275.950291000001
 31
0.0
  0
LINE
  5
5480
330
53E2
100
AcDbEntity
  8
0
  6
Continuous
100
AcDbLine
 10
-3467.592195
 20
-556.0389459999988
 30
0.0
 11
-3521.906006
 21
-530.068283999999
 31
0.0
  0
LWPOLYLINE
  5
5481
330
53E2
100
AcDbEntity
  8
0
  6
Continuous
100
AcDbPolyline
 90
        5
 70
     0
 43
0.0
 10
-5429.750184999999
 20
273.3822980000005
 10
-5430.035362000001
 20
267.3890790000023
 10
-5415.392172
 20
242.6651540000021
 10
-5296.768839000001
 20
237.0206660000004
 10
-5293.807427
 20
255.4091780000017
  0
LINE
  5
5482
330
53E2
100
AcDbEntity
  8
0
  6
Continuous
100
AcDbLine
 10
-5494.392813000001
 20
307.9938470000016
 30
0.0
 11
-5516.367951
 21
309.0394960000012
 31
0.0
  0
LINE
  5
5483
330
53E2
100
AcDbEntity
  8
0
  6
Continuous
100
AcDbLine
 10
-5424.199146999999
 20
304.6538020000026
 30
0.0
 11
-5486.401854
 21
307.6136110000007
 31
0.0
  0
LINE
  5
5484
330
53E2
100
AcDbEntity
  8
0
  6
Continuous
100
AcDbLine
 10
-5485.977895
 20
316.603621000002
 30
0.0
 11
-5423.775189
 21
313.6438120000021
 31
0.0
  0
LINE
  5
5485
330
53E2
100
AcDbEntity
  8
0
  6
Continuous
100
AcDbLine
 10
-5515.943992999999
 20
318.0295060000008
 30
0.0
 11
-5493.968855000002
 21
316.9838570000011
 31
0.0
  0
LINE
  5
5486
330
53E2
100
AcDbEntity
  8
0
  6
Continuous
100
AcDbLine
 10
-5568.425326999999
 20
493.910243000002
 30
0.0
 11
-5565.511177000001
 21
555.1533990000025
 31
0.0
  0
LWPOLYLINE
  5
5487
330
53E2
100
AcDbEntity
  8
0
  6
Continuous
100
AcDbPolyline
 90
        3
 70
     0
 43
0.0
 10
-5565.711327999999
 20
493.7822540000015
 10
-5715.176692
 20
586.7937020000026
 10
-5826.179181
 20
592.075565000001
  0
LWPOLYLINE
  5
5488
330
53E2
100
AcDbEntity
  8
0
  6
Continuous
100
AcDbPolyline
 90
        5
 70
     0
 43
0.0
 10
2013.724512000001
 20
252.0735580000001
 10
2013.724512000001
 20
544.6586340000012
 10
1888.724512
 20
544.6586340000012
 10
1878.724512000001
 20
534.6586340000012
 10
1878.724512000001
 20
361.9316290000024
  0
LWPOLYLINE
  5
5489
330
53E2
100
AcDbEntity
  8
0
  6
Continuous
100
AcDbPolyline
 90
        4
 70
     0
 43
0.0
 10
1878.724512000001
 20
-285.3413659999987
 10
1888.724512
 20
-295.3413659999987
 10
2013.724512000001
 20
-295.3413659999987
 10
2013.724512000001
 20
-93.31678999999894
  0
LINE
  5
548A
330
53E2
100
AcDbEntity
  8
0
  6
Continuous
100
AcDbLine
 10
-6189.613321999999
 20
-614.3581129999984
 30
0.0
 11
-5090.834458999999
 21
-666.1752089999991
 31
0.0
  0
LINE
  5
548B
330
53E2
100
AcDbEntity
  8
0
  6
Continuous
100
AcDbLine
 10
-3463.316845
 20
-105.3413659999987
 30
0.0
 11
-3424.375488
 21
-105.3413659999987
 31
0.0
  0
LINE
  5
548C
330
53E2
100
AcDbEntity
  8
0
  6
Continuous
100
AcDbLine
 10
-3046.875488
 20
540.6586340000012
 30
0.0
 11
-3120.375488
 21
540.6586340000012
 31
0.0
  0
LINE
  5
548D
330
53E2
100
AcDbEntity
  8
0
  6
Continuous
100
AcDbLine
 10
-3049.375488
 20
524.6586340000012
 30
0.0
 11
-3046.875488
 21
524.6586340000012
 31
0.0
  0
ARC
  5
548E
330
53E2
100
AcDbEntity
  8
0
  6
Continuous
100
AcDbCircle
 10
-5111.605725
 20
-762.1101169999993
 30
0.0
 40
12.0
100
AcDbArc
 50
166.2869422000125
 51
8.31572100002913
  0
LINE
  5
548F
330
53E2
100
AcDbEntity
  8
0
  6
Continuous
100
AcDbLine
 10
-3120.375488
 20
544.6586340000012
 30
0.0
 11
-3495.875488
 21
544.6586340000012
 31
0.0
  0
LWPOLYLINE
  5
5490
330
53E2
100
AcDbEntity
  8
0
  6
Continuous
100
AcDbPolyline
 90
        3
 70
     0
 43
0.0
 10
-6022.567148
 20
257.4884080000011
 10
-6078.864852999998
 20
394.7563960000025
 10
-6077.870493
 20
395.1642130000018
  0
LINE
  5
5491
330
53E2
100
AcDbEntity
  8
0
  6
Continuous
100
AcDbLine
 10
-3495.875488
 20
-295.3413659999987
 30
0.0
 11
-3367.875488
 21
-295.3413659999987
 31
0.0
  0
LINE
  5
5492
330
53E2
100
AcDbEntity
  8
0
  6
Continuous
100
AcDbLine
 10
1878.724512000001
 20
-190.6989109999995
 30
0.0
 11
1878.724512000001
 21
-285.3413659999987
 31
0.0
  0
LINE
  5
5493
330
53E2
100
AcDbEntity
  8
0
  6
Continuous
100
AcDbLine
 10
1269.966457
 20
-193.5239739999979
 30
0.0
 11
1230.012096
 21
-191.6137249999992
 31
0.0
  0
LWPOLYLINE
  5
5494
330
53E2
100
AcDbEntity
  8
0
  6
Continuous
100
AcDbPolyline
 90
        3
 70
     0
 43
0.0
 10
-2647.875488
 20
669.6586340000012
 10
-2652.875488
 20
669.6586340000012
 10
-2652.875488
 20
699.6586340000012
  0
LINE
  5
5495
330
53E2
100
AcDbEntity
  8
0
  6
Continuous
100
AcDbLine
 10
-3212.274874
 20
962.6586340000013
 30
0.0
 11
-3282.875488
 21
962.6586340000013
 31
0.0
  0
LINE
  5
5496
330
53E2
100
AcDbEntity
  8
0
  6
Continuous
100
AcDbLine
 10
-3046.881013
 20
962.6586340000013
 30
0.0
 11
-3184.812691
 21
962.6586340000013
 31
0.0
  0
LINE
  5
5497
330
53E2
100
AcDbEntity
  8
0
  6
Continuous
100
AcDbLine
 10
-3211.438099
 20
782.1586340000012
 30
0.0
 11
-3456.875488
 21
782.1586340000012
 31
0.0
  0
LINE
  5
5498
330
53E2
100
AcDbEntity
  8
0
  6
Continuous
100
AcDbLine
 10
-3047.130322
 20
782.1586340000012
 30
0.0
 11
-3184.275487999999
 21
782.1586340000012
 31
0.0
  0
LINE
  5
5499
330
53E2
100
AcDbEntity
  8
0
  6
Continuous
100
AcDbLine
 10
-3212.274874
 20
962.6586340000013
 30
0.0
 11
-3292.875488
 21
962.6586340000013
 31
0.0
  0
LINE
  5
549A
330
53E2
100
AcDbEntity
  8
0
  6
Continuous
100
AcDbLine
 10
-3046.881013
 20
962.6586340000013
 30
0.0
 11
-3184.812691
 21
962.6586340000013
 31
0.0
  0
LINE
  5
549B
330
53E2
100
AcDbEntity
  8
0
  6
Continuous
100
AcDbLine
 10
-3185.912334
 20
969.6586340000012
 30
0.0
 11
-3081.875488
 21
969.6586340000012
 31
0.0
  0
LWPOLYLINE
  5
549C
330
53E2
100
AcDbEntity
  8
0
  6
Continuous
100
AcDbPolyline
 90
        3
 70
     0
 43
0.0
 10
-3282.875488
 20
962.6586340000013
 10
-3282.875488
 20
969.6586340000012
 10
-3213.931456
 20
969.6586340000012
  0
LINE
  5
549D
330
53E2
100
AcDbEntity
  8
0
  6
Continuous
100
AcDbLine
 10
-3120.375488
 20
587.1586340000012
 30
0.0
 11
-3456.875488
 21
587.1586340000012
 31
0.0
  0
LINE
  5
549E
330
53E2
100
AcDbEntity
  8
0
  6
Continuous
100
AcDbLine
 10
-3081.875488
 20
-901.3395479999982
 30
0.0
 11
-3081.875488
 21
-905.3413659999987
 31
0.0
  0
LINE
  5
549F
330
53E2
100
AcDbEntity
  8
0
  6
Continuous
100
AcDbLine
 10
-2712.875488
 20
24.65863400000126
 30
0.0
 11
-2712.875488
 21
129.9443910000009
 31
0.0
  0
LINE
  5
54A0
330
53E2
100
AcDbEntity
  8
0
  6
Continuous
100
AcDbLine
 10
-2389.726633
 20
-297.3413659999987
 30
0.0
 11
-367.8754879999997
 21
-297.3413659999987
 31
0.0
  0
LINE
  5
54A1
330
53E2
100
AcDbEntity
  8
0
  6
Continuous
100
AcDbLine
 10
-3424.375488
 20
-225.3413659999988
 30
0.0
 11
-3488.875488
 21
-225.3413659999988
 31
0.0
  0
LINE
  5
54A2
330
53E2
100
AcDbEntity
  8
0
  6
Continuous
100
AcDbLine
 10
-3046.875488
 20
-509.3413659999987
 30
0.0
 11
-3046.875488
 21
-717.3413659999987
 31
0.0
  0
LINE
  5
54A3
330
53E2
100
AcDbEntity
  8
0
  6
Continuous
100
AcDbLine
 10
-2882.875488
 20
24.65863400000126
 30
0.0
 11
-2882.875488
 21
106.7630690000005
 31
0.0
  0
LINE
  5
54A4
330
53E2
100
AcDbEntity
  8
0
  6
Continuous
100
AcDbLine
 10
-2876.875487999999
 20
-509.3413659999987
 30
0.0
 11
-2876.875487999999
 21
-717.3413659999987
 31
0.0
  0
LINE
  5
54A5
330
53E2
100
AcDbEntity
  8
0
  6
Continuous
100
AcDbLine
 10
1351.164280999999
 20
286.1031760000005
 30
0.0
 11
1352.641678
 21
317.0040950000021
 31
0.0
  0
LINE
  5
54A6
330
53E2
100
AcDbEntity
  8
0
  6
Continuous
100
AcDbLine
 10
557.1245120000003
 20
-26.39682699999867
 30
0.0
 11
557.1245120000003
 21
-59.54270799999903
 31
0.0
  0
LINE
  5
54A7
330
53E2
100
AcDbEntity
  8
0
  6
Continuous
100
AcDbLine
 10
562.1245120000003
 20
-26.635879999998
 30
0.0
 11
562.1245120000003
 21
-57.55229099999815
 31
0.0
  0
LWPOLYLINE
  5
54A8
330
53E2
100
AcDbEntity
  8
0
  6
Continuous
100
AcDbPolyline
 90
        3
 70
     0
 43
0.0
 10
839.7454160000016
 20
310.4906490000012
 10
845.1179910000009
 20
422.8622890000005
 10
875.0837620000002
 20
421.4296020000019
  0
LINE
  5
54A9
330
53E2
100
AcDbEntity
  8
0
  6
Continuous
100
AcDbLine
 10
557.1245120000003
 20
-26.39682699999867
 30
0.0
 11
557.1245120000003
 21
-59.54270799999903
 31
0.0
  0
LINE
  5
54AA
330
53E2
100
AcDbEntity
  8
0
  6
Continuous
100
AcDbLine
 10
562.1245120000003
 20
-26.635879999998
 30
0.0
 11
562.1245120000003
 21
-57.55229099999815
 31
0.0
  0
LINE
  5
54AB
330
53E2
100
AcDbEntity
  8
0
  6
Continuous
100
AcDbLine
 10
-2712.875488
 20
129.9443910000009
 30
0.0
 11
-2712.875488
 21
24.65863400000126
 31
0.0
  0
LINE
  5
54AC
330
53E2
100
AcDbEntity
  8
0
  6
Continuous
100
AcDbLine
 10
-2565.530296
 20
122.8997040000013
 30
0.0
 11
-2565.530296
 21
-9.341365999998743
 31
0.0
  0
LINE
  5
54AD
330
53E2
100
AcDbEntity
  8
0
  6
Continuous
100
AcDbLine
 10
-2712.875488
 20
480.3441900000016
 30
0.0
 11
-2712.875488
 21
966.6586340000012
 31
0.0
  0
LINE
  5
54AE
330
53E2
100
AcDbEntity
  8
0
  6
Continuous
100
AcDbLine
 10
-3046.875488
 20
145.9131890000008
 30
0.0
 11
-3046.875488
 21
24.65863400000126
 31
0.0
  0
LINE
  5
54AF
330
53E2
100
AcDbEntity
  8
0
  6
Continuous
100
AcDbLine
 10
-3733.299315999999
 20
529.1314390000007
 30
0.0
 11
-3733.299315999999
 21
774.6586340000012
 31
0.0
  0
ARC
  5
54B0
330
53E2
100
AcDbEntity
  8
0
  6
Continuous
100
AcDbCircle
 10
1434.528902
 20
233.8812900000012
 30
0.0
 40
6173.366211
100
AcDbArc
 50
180.0656574999905
 51
181.0106505999859
  0
ARC
  5
54B1
330
53E2
100
AcDbEntity
  8
0
  6
Continuous
100
AcDbCircle
 10
1454.528902
 20
233.8812900000012
 30
0.0
 40
6173.366211
100
AcDbArc
 50
180.0745327000034
 51
181.0106505999859
  0
LWPOLYLINE
  5
54B2
330
53E2
100
AcDbEntity
  8
0
  6
Continuous
100
AcDbPolyline
 90
        4
 70
     0
 43
0.0
 10
1961.155662000001
 20
-93.3182199999992
 10
1960.870492
 20
-99.31143899999916
 10
1380.652768
 20
-71.70277699999861
 10
1380.937944999999
 20
-65.70955799999865
  0
LWPOLYLINE
  5
54B3
330
53E2
100
AcDbEntity
  8
0
  6
Continuous
100
AcDbPolyline
 90
        3
 70
     0
 43
0.0
 10
1992.655371999999
 20
253.076097000001
 10
1992.774192000001
 20
255.5732720000015
 10
16.63532700000178
 20
349.6044420000016
  0
LWPOLYLINE
  5
54B4
330
53E2
100
AcDbEntity
  8
0
  6
Continuous
100
AcDbPolyline
 90
        3
 70
     0
 43
0.0
 10
0.0
 20
0.0
 10
1976.138862
 20
-94.03117000000021
 10
1976.257691999999
 20
-91.53399599999829
  0
LINE
  5
54B5
330
53E2
100
AcDbEntity
  8
0
  6
Continuous
100
AcDbLine
 10
2042.368712
 20
35.46731300000101
 30
0.0
 11
2046.408722
 21
120.3712490000016
 31
0.0
  0
LINE
  5
54B6
330
53E2
100
AcDbEntity
  8
0
  6
Continuous
100
AcDbLine
 10
-2952.034397
 20
250.5919400000021
 30
0.0
 11
-2913.577042
 21
248.7620130000014
 31
0.0
  0
LINE
  5
54B7
330
53E2
100
AcDbEntity
  8
0
  6
Continuous
100
AcDbLine
 10
-2012.592385
 20
329.0293750000001
 30
0.0
 11
-4688.216094
 21
456.344328000001
 31
0.0
  0
LINE
  5
54B8
330
53E2
100
AcDbEntity
  8
0
  6
Continuous
100
AcDbLine
 10
-4687.883387
 20
463.3364170000004
 30
0.0
 11
-2012.416366
 21
336.0289190000003
 31
0.0
  0
LINE
  5
54B9
330
53E2
100
AcDbEntity
  8
0
  6
Continuous
100
AcDbLine
 10
-4687.959434999998
 20
461.738225000001
 30
0.0
 11
-2012.355963
 21
334.4242350000022
 31
0.0
  0
LINE
  5
54BA
330
53E2
100
AcDbEntity
  8
0
  6
Continuous
100
AcDbLine
 10
-5009.938986999999
 20
238.3893320000025
 30
0.0
 11
-5009.766506
 21
242.014148000002
 31
0.0
  0
LINE
  5
54BB
330
53E2
100
AcDbEntity
  8
0
  6
Continuous
100
AcDbLine
 10
-4993.720544
 20
579.2326350000021
 30
0.0
 11
-4993.303659999999
 21
587.9937750000008
 31
0.0
  0
LWPOLYLINE
  5
54BC
330
53E2
100
AcDbEntity
  8
0
  6
Continuous
100
AcDbPolyline
 90
        5
 70
     0
 43
0.0
 10
-4963.524571
 20
498.4772210000009
 10
-4963.999867
 20
488.4885220000014
 10
-4784.203296
 20
479.9332120000017
 10
-4783.989413999999
 20
484.4281260000006
 10
-4949.801805999999
 20
492.318024000002
  0
LINE
  5
54BD
330
53E2
100
AcDbEntity
  8
0
  6
Continuous
100
AcDbLine
 10
-4961.623390999999
 20
538.4320140000018
 30
0.0
 11
-4962.098686
 21
528.4433160000007
 31
0.0
  0
LWPOLYLINE
  5
54BE
330
53E2
100
AcDbEntity
  8
0
  6
Continuous
100
AcDbPolyline
 90
        5
 70
     0
 43
0.0
 10
-4971.794705
 20
324.6738700000005
 10
-4971.31941
 20
334.6625680000016
 10
-4791.522839999999
 20
326.1072570000015
 10
-4791.736723
 20
321.6123430000025
 10
-4957.549114999999
 20
329.5022410000001
  0
LINE
  5
54BF
330
53E2
100
AcDbEntity
  8
0
  6
Continuous
100
AcDbLine
 10
-4973.695884999999
 20
284.7190760000012
 30
0.0
 11
-4973.220589999999
 21
294.7077740000022
 31
0.0
  0
ARC
  5
54C0
330
53E2
100
AcDbEntity
  8
0
  6
Continuous
100
AcDbCircle
 10
-4493.060315000001
 20
286.8771450000004
 30
0.0
 40
15.0
100
AcDbArc
 50
199.1970737000211
 51
267.2757336999574
  0
ARC
  5
54C1
330
53E2
100
AcDbEntity
  8
0
  6
Continuous
100
AcDbCircle
 10
-4493.060315000001
 20
286.8771450000004
 30
0.0
 40
15.0
100
AcDbArc
 50
87.27573367001308
 51
155.3543936000103
  0
ARC
  5
54C2
330
53E2
100
AcDbEntity
  8
0
  6
Continuous
100
AcDbCircle
 10
-4483.364296
 20
490.6465910000006
 30
0.0
 40
15.0
100
AcDbArc
 50
199.1970737000211
 51
267.2757336999574
  0
ARC
  5
54C3
330
53E2
100
AcDbEntity
  8
0
  6
Continuous
100
AcDbCircle
 10
-4483.364296
 20
490.6465910000006
 30
0.0
 40
15.0
100
AcDbArc
 50
87.27573367001308
 51
155.3543936000103
  0
LWPOLYLINE
  5
54C4
330
53E2
100
AcDbEntity
  8
0
  6
Continuous
100
AcDbPolyline
 90
       31
 70
     0
 43
0.0
 10
-4959.364633999999
 20
524.8024440000008
 10
-4959.340732999999
 20
524.7923450000016
 10
-4959.300262999999
 20
524.7431280000019
 10
-4959.261516999998
 20
524.6626100000012
 10
-4959.224602
 20
524.551010000001
 10
-4959.189618999999
 20
524.4086360000001
 10
-4959.156664
 20
524.2358780000013
 10
-4959.125827
 20
524.0332080000007
 10
-4959.097191999999
 20
523.8011830000013
 10
-4959.070837999999
 20
523.5404380000018
 10
-4959.046838
 20
523.251688000002
 10
-4959.025255999999
 20
522.9357240000026
 10
-4959.006153
 20
522.5934130000023
 10
-4958.989581
 20
522.2256930000021
 10
-4958.975584
 20
521.8335720000013
 10
-4958.964201999999
 20
521.4181240000016
 10
-4958.955465000001
 20
520.980488000001
 10
-4958.949397999998
 20
520.5218640000002
 10
-4958.946017
 20
520.0435080000006
 10
-4958.945330999998
 20
519.546733000001
 10
-4958.947343
 20
519.0328990000016
 10
-4958.952046
 20
518.503415000001
 10
-4958.959428
 20
517.9597320000011
 10
-4958.969468999999
 20
517.4033400000007
 10
-4958.982141
 20
516.8357650000016
 10
-4958.99741
 20
516.2585620000008
 10
-4959.015233
 20
515.6733130000011
 10
-4959.035560999999
 20
515.0816220000015
 10
-4959.05834
 20
514.4851120000021
 10
-4959.083505999998
 20
513.8854160000009
 10
-4959.110989999999
 20
513.2841800000005
  0
LINE
  5
54C5
330
53E2
100
AcDbEntity
  8
0
  6
Continuous
100
AcDbLine
 10
-4979.981196999999
 20
347.0883010000016
 30
0.0
 11
-4716.037359
 21
334.5289880000018
 31
0.0
  0
LINE
  5
54C6
330
53E2
100
AcDbEntity
  8
0
  6
Continuous
100
AcDbLine
 10
-4948.33944
 20
522.7829480000018
 30
0.0
 11
-4873.74475
 21
519.2334880000016
 31
0.0
  0
LINE
  5
54C7
330
53E2
100
AcDbEntity
  8
0
  6
Continuous
100
AcDbLine
 10
-4949.29003
 20
502.8055520000016
 30
0.0
 11
-4874.720192999999
 21
499.2572740000014
 31
0.0
  0
LINE
  5
54C8
330
53E2
100
AcDbEntity
  8
0
  6
Continuous
100
AcDbLine
 10
-4971.643355000001
 20
523.8918250000006
 30
0.0
 11
-4959.414093999999
 21
523.3099170000005
 31
0.0
  0
LINE
  5
54C9
330
53E2
100
AcDbEntity
  8
0
  6
Continuous
100
AcDbLine
 10
-4279.413129999999
 20
486.5482620000021
 30
0.0
 11
-4763.670615000001
 21
509.590822
 31
0.0
  0
LINE
  5
54CA
330
53E2
100
AcDbEntity
  8
0
  6
Continuous
100
AcDbLine
 10
-4764.202946
 20
498.4034790000023
 30
0.0
 11
-4279.945460000001
 21
475.360920000001
 31
0.0
  0
LINE
  5
54CB
330
53E2
100
AcDbEntity
  8
0
  6
Continuous
100
AcDbLine
 10
-4764.128364
 20
514.0175810000019
 30
0.0
 11
-4818.620872
 21
516.6105130000014
 31
0.0
  0
LINE
  5
54CC
330
53E2
100
AcDbEntity
  8
0
  6
Continuous
100
AcDbLine
 10
-4765.078953999998
 20
494.0401840000013
 30
0.0
 11
-4819.571461999999
 21
496.6331170000012
 31
0.0
  0
LWPOLYLINE
  5
54CD
330
53E2
100
AcDbEntity
  8
0
  6
Continuous
100
AcDbPolyline
 90
       59
 70
     0
 43
0.0
 10
-4764.129410999999
 20
513.995573000002
 10
-4764.101355999999
 20
513.9614530000017
 10
-4764.067664
 20
513.891437000002
 10
-4764.035565
 20
513.7943940000004
 10
-4764.005144999999
 20
513.670591
 10
-4763.976488999999
 20
513.5203660000006
 10
-4763.949675
 20
513.3441310000016
 10
-4763.924774999999
 20
513.1423700000014
 10
-4763.901859999999
 20
512.9156350000012
 10
-4763.880989999999
 20
512.6645480000006
 10
-4763.862223999999
 20
512.389798000002
 10
-4763.845612999999
 20
512.0921360000011
 10
-4763.831203
 20
511.7723790000018
 10
-4763.819031999999
 20
511.4314040000008
 10
-4763.809134999999
 20
511.0701450000014
 10
-4763.801538
 20
510.6895920000006
 10
-4763.796263
 20
510.2907890000006
 10
-4763.793323
 20
509.8748270000014
 10
-4763.792727
 20
509.4428490000027
 10
-4763.794476000001
 20
508.9960360000004
 10
-4763.798567
 20
508.535616000001
 10
-4763.804985999999
 20
508.0628480000013
 10
-4763.813717999999
 20
507.5790290000022
 10
-4763.824737000001
 20
507.0854850000014
 10
-4763.838013999999
 20
506.5835700000007
 10
-4763.853511999999
 20
506.0746580000013
 10
-4763.871188999999
 20
505.5601440000009
 10
-4763.890997
 20
505.0414390000005
 10
-4763.912881
 20
504.5199650000013
 10
-4763.93678
 20
503.9971510000014
 10
-4763.962631
 20
503.4744290000016
 10
-4763.990360999998
 20
502.9532330000002
 10
-4764.019894999999
 20
502.434991
 10
-4764.051150999999
 20
501.9211230000019
 10
-4764.084044999999
 20
501.4130390000009
 10
-4764.118485
 20
500.9121300000006
 10
-4764.154378999999
 20
500.4197700000004
 10
-4764.191626
 20
499.9373080000005
 10
-4764.230126
 20
499.4660670000012
 10
-4764.269771999999
 20
499.0073380000012
 10
-4764.310455000001
 20
498.5623790000008
 10
-4764.352065999999
 20
498.1324080000013
 10
-4764.394487999999
 20
497.718605
 10
-4764.437607
 20
497.322105000001
 10
-4764.481303999999
 20
496.9439920000004
 10
-4764.525458
 20
496.5853050000005
 10
-4764.569949999999
 20
496.2470260000009
 10
-4764.614657
 20
495.930083000001
 10
-4764.659455999999
 20
495.6353430000017
 10
-4764.704225
 20
495.363615000002
 10
-4764.748841999999
 20
495.1156450000016
 10
-4764.793183
 20
494.8921100000025
 10
-4764.837127
 20
494.6936250000017
 10
-4764.880554
 20
494.5207330000012
 10
-4764.923344999998
 20
494.3739070000011
 10
-4764.965382
 20
494.2535520000019
 10
-4765.006551
 20
494.1599950000018
 10
-4765.046737999999
 20
494.0934950000009
 10
-4765.077906999999
 20
494.0621930000015
  0
LWPOLYLINE
  5
54CE
330
53E2
100
AcDbEntity
  8
0
  6
Continuous
100
AcDbPolyline
 90
       44
 70
     0
 43
0.0
 10
-4864.322127
 20
517.7839980000007
 10
-4864.319245999999
 20
517.8044230000014
 10
-4864.269295
 20
518.1330580000012
 10
-4864.219377
 20
518.436034000002
 10
-4864.169630000001
 20
518.7125220000016
 10
-4864.12019
 20
518.9617630000011
 10
-4864.071191999999
 20
519.1830740000023
 10
-4864.02277
 20
519.3758490000018
 10
-4863.975059000001
 20
519.5395590000007
 10
-4863.928186999999
 20
519.6737549999998
 10
-4863.882283999999
 20
519.7780710000024
 10
-4863.837474999998
 20
519.8522190000003
 10
-4863.793884
 20
519.8959970000014
 10
-4863.751629000001
 20
519.9092840000012
 10
-4863.710827000001
 20
519.8920450000005
 10
-4863.67159
 20
519.8443260000021
 10
-4863.634023999999
 20
519.7662580000014
 10
-4863.598233000001
 20
519.6580549999999
 10
-4863.564315
 20
519.5200140000015
 10
-4863.532364
 20
519.3525130000016
 10
-4863.502464999999
 20
519.1560120000012
 10
-4863.474703
 20
518.9310480000021
 10
-4863.449151999999
 20
518.6782390000007
 10
-4863.425882
 20
518.398277000002
 10
-4863.404958000001
 20
518.0919300000005
 10
-4863.386436999999
 20
517.7600370000018
 10
-4863.370369
 20
517.4035090000016
 10
-4863.356798999999
 20
517.0233210000024
 10
-4863.345763999999
 20
516.6205170000012
 10
-4863.337292999998
 20
516.1962010000006
 10
-4863.331410999999
 20
515.7515350000012
 10
-4863.328133000001
 20
515.2877380000027
 10
-4863.327469
 20
514.806082000001
 10
-4863.32942
 20
514.3078860000005
 10
-4863.33398
 20
513.7945170000002
 10
-4863.341138
 20
513.2673810000015
 10
-4863.350872999999
 20
512.7279230000022
 10
-4863.363159999999
 20
512.177622000001
 10
-4863.377963999999
 20
511.6179860000011
 10
-4863.395243999999
 20
511.0505490000014
 10
-4863.414954
 20
510.4768660000009
 10
-4863.437039999999
 20
509.8985100000009
 10
-4863.461440000001
 20
509.3170660000014
 10
-4863.488088
 20
508.7341280000019
  0
LINE
  5
54CF
330
53E2
100
AcDbEntity
  8
0
  6
Continuous
100
AcDbLine
 10
-4818.916713000001
 20
517.7758920000014
 30
0.0
 11
-4863.779339999999
 21
519.9106030000002
 31
0.0
  0
LINE
  5
54D0
330
53E2
100
AcDbEntity
  8
0
  6
Continuous
100
AcDbLine
 10
-4819.976621
 20
495.501094000001
 30
0.0
 11
-4864.839248
 21
497.6358049999999
 31
0.0
  0
LWPOLYLINE
  5
54D1
330
53E2
100
AcDbEntity
  8
0
  6
Continuous
100
AcDbPolyline
 90
       61
 70
     0
 43
0.0
 10
-4818.916713000001
 20
517.7758920000014
 10
-4818.875910999999
 20
517.7586520000022
 10
-4818.836672999999
 20
517.7109330000003
 10
-4818.799106999999
 20
517.6328650000014
 10
-4818.763315999999
 20
517.5246630000019
 10
-4818.729399
 20
517.3866219999999
 10
-4818.697447
 20
517.2191210000018
 10
-4818.667549
 20
517.0226190000012
 10
-4818.639786
 20
516.7976560000006
 10
-4818.614234999999
 20
516.544847000001
 10
-4818.590964999999
 20
516.2648850000023
 10
-4818.570041
 20
515.9585370000022
 10
-4818.551519999999
 20
515.626645000002
 10
-4818.535452
 20
515.2701159999996
 10
-4818.521881999998
 20
514.8899290000009
 10
-4818.510846999999
 20
514.4871250000014
 10
-4818.502376000001
 20
514.0628080000006
 10
-4818.496494000001
 20
513.6181420000012
 10
-4818.493217
 20
513.1543460000012
 10
-4818.492552
 20
512.6726890000009
 10
-4818.494503
 20
512.1744940000008
 10
-4818.499062999999
 20
511.661124000002
 10
-4818.506220999999
 20
511.1339880000014
 10
-4818.515956999999
 20
510.5945300000002
 10
-4818.528242999999
 20
510.0442290000009
 10
-4818.543047000002
 20
509.484593000001
 10
-4818.560328
 20
508.9171560000013
 10
-4818.580038
 20
508.3434740000011
 10
-4818.602122999998
 20
507.7651180000011
 10
-4818.626523000001
 20
507.1836740000017
 10
-4818.653172000001
 20
506.6007360000003
 10
-4818.681995000001
 20
506.0179010000011
 10
-4818.712913999999
 20
505.4367680000013
 10
-4818.745843999999
 20
504.8589280000014
 10
-4818.780695
 20
504.2859660000012
 10
-4818.817370999999
 20
503.7194520000012
 10
-4818.855772999999
 20
503.1609380000027
 10
-4818.895794
 20
502.611957000001
 10
-4818.937324999999
 20
502.0740120000009
 10
-4818.980250999999
 20
501.5485780000017
 10
-4819.024457
 20
501.0370950000015
 10
-4819.069819
 20
500.5409650000019
 10
-4819.116215000001
 20
500.0615480000014
 10
-4819.163515999999
 20
499.6001580000011
 10
-4819.211593
 20
499.1580600000015
 10
-4819.260315
 20
498.7364650000017
 10
-4819.309546999999
 20
498.3365280000016
 10
-4819.359156
 20
497.959347
 10
-4819.409003999999
 20
497.6059550000009
 10
-4819.458955
 20
497.2773210000013
 10
-4819.508873000001
 20
496.9743440000002
 10
-4819.55862
 20
496.6978570000009
 10
-4819.608060000001
 20
496.4486159999997
 10
-4819.657057999999
 20
496.2273050000003
 10
-4819.705478999998
 20
496.0345300000008
 10
-4819.753191
 20
495.8708200000018
 10
-4819.800063000001
 20
495.7366230000006
 10
-4819.845965999999
 20
495.6323080000002
 10
-4819.890775
 20
495.5581600000023
 10
-4819.934366
 20
495.5143820000012
 10
-4819.976621
 20
495.501094000001
  0
LWPOLYLINE
  5
54D2
330
53E2
100
AcDbEntity
  8
0
  6
Continuous
100
AcDbPolyline
 90
       44
 70
     0
 43
0.0
 10
-4863.488088
 20
508.7341280000019
 10
-4863.516910999999
 20
508.1512940000011
 10
-4863.547829999999
 20
507.5701600000011
 10
-4863.580760999999
 20
506.9923200000012
 10
-4863.615612
 20
506.419358000001
 10
-4863.652287999999
 20
505.8528440000009
 10
-4863.690689999999
 20
505.2943310000009
 10
-4863.73071
 20
504.7453490000025
 10
-4863.772241000001
 20
504.2074040000007
 10
-4863.815167999999
 20
503.6819700000014
 10
-4863.859373
 20
503.1704880000015
 10
-4863.904735999998
 20
502.6743580000002
 10
-4863.951131
 20
502.1949409999997
 10
-4863.998432999999
 20
501.7335510000012
 10
-4864.04651
 20
501.2914520000013
 10
-4864.095232
 20
500.8698570000015
 10
-4864.144463999998
 20
500.4699210000016
 10
-4864.194072
 20
500.0927400000018
 10
-4864.243919999999
 20
499.739348000001
 10
-4864.293872000001
 20
499.4107130000011
 10
-4864.343789000001
 20
499.107737000002
 10
-4864.393537
 20
498.8312490000025
 10
-4864.442977000001
 20
498.5820080000012
 10
-4864.491974999999
 20
498.3606970000001
 10
-4864.540395999998
 20
498.1679220000005
 10
-4864.588108
 20
498.0042120000016
 10
-4864.634980000001
 20
497.8700160000007
 10
-4864.680882999999
 20
497.7657000000017
 10
-4864.725691
 20
497.691552000002
 10
-4864.769283
 20
497.6477740000027
 10
-4864.811537
 20
497.6344870000011
 10
-4864.852338999999
 20
497.6517260000019
 10
-4864.891577
 20
497.6994450000019
 10
-4864.929143
 20
497.7775130000027
 10
-4864.964933000001
 20
497.8857160000006
 10
-4864.998851000001
 20
498.0237570000008
 10
-4865.030802999999
 20
498.1912570000022
 10
-4865.060701
 20
498.3877590000011
 10
-4865.088463999999
 20
498.612723000002
 10
-4865.114015000001
 20
498.8655320000016
 10
-4865.137284000001
 20
499.1454940000003
 10
-4865.158207999999
 20
499.451841
 10
-4865.176729999999
 20
499.7837340000005
 10
-4865.177658
 20
499.8043410000009
  0
LINE
  5
54D3
330
53E2
100
AcDbEntity
  8
0
  6
Continuous
100
AcDbLine
 10
-4863.854031000001
 20
517.7617240000017
 30
0.0
 11
-4873.494022999999
 21
518.220427000002
 31
0.0
  0
LINE
  5
54D4
330
53E2
100
AcDbEntity
  8
0
  6
Continuous
100
AcDbLine
 10
-4864.709562
 20
499.7820670000018
 30
0.0
 11
-4874.349553999998
 21
500.2407700000003
 31
0.0
  0
LWPOLYLINE
  5
54D5
330
53E2
100
AcDbEntity
  8
0
  6
Continuous
100
AcDbPolyline
 90
       61
 70
     0
 43
0.0
 10
-4863.854031000001
 20
517.7617240000017
 10
-4863.821108
 20
517.7478090000004
 10
-4863.789448
 20
517.7092920000013
 10
-4863.759136999999
 20
517.6462780000001
 10
-4863.730258
 20
517.5589400000007
 10
-4863.702891999999
 20
517.4475180000008
 10
-4863.677111999999
 20
517.3123160000013
 10
-4863.652989000001
 20
517.1537050000006
 10
-4863.630590000001
 20
516.9721210000025
 10
-4863.609976
 20
516.7680600000021
 10
-4863.591203
 20
516.5420820000017
 10
-4863.574322999999
 20
516.294807000002
 10
-4863.559383
 20
516.0269120000012
 10
-4863.546421999999
 20
515.7391310000003
 10
-4863.535476999999
 20
515.4322540000012
 10
-4863.526577999999
 20
515.1071210000009
 10
-4863.519748000001
 20
514.7646240000012
 10
-4863.515008
 20
514.4057010000015
 10
-4863.512369
 20
514.031336
 10
-4863.511838999999
 20
513.6425560000007
 10
-4863.513419000001
 20
513.2404250000018
 10
-4863.517105999999
 20
512.8260470000005
 10
-4863.522888
 20
512.4005560000004
 10
-4863.530751
 20
511.9651190000004
 10
-4863.540672000001
 20
511.5209300000006
 10
-4863.552624
 20
511.0692060000019
 10
-4863.566574999999
 20
510.6111850000015
 10
-4863.582487
 20
510.1481230000008
 10
-4863.600315
 20
509.6812890000001
 10
-4863.620010999999
 20
509.2119620000012
 10
-4863.641520999999
 20
508.7414290000014
 10
-4863.664786
 20
508.2709800000011
 10
-4863.689742
 20
507.8019030000014
 10
-4863.716321
 20
507.3354850000014
 10
-4863.74445
 20
506.8730050000012
 10
-4863.774051999999
 20
506.4157280000017
 10
-4863.805044999999
 20
505.9649110000009
 10
-4863.837345999998
 20
505.5217860000011
 10
-4863.870863999999
 20
505.0875700000014
 10
-4863.905509
 20
504.663453000001
 10
-4863.941184999999
 20
504.2505970000002
 10
-4863.977794
 20
503.8501329999999
 10
-4864.015237
 20
503.4631590000008
 10
-4864.053410999999
 20
503.0907360000001
 10
-4864.092209999999
 20
502.7338850000014
 10
-4864.131530000001
 20
502.3935840000013
 10
-4864.171261
 20
502.0707650000022
 10
-4864.211294999999
 20
501.7663140000004
 10
-4864.251522
 20
501.4810640000014
 10
-4864.291831999999
 20
501.2157980000011
 10
-4864.332114999999
 20
500.9712430000018
 10
-4864.37226
 20
500.7480680000007
 10
-4864.412156999999
 20
500.5468870000022
 10
-4864.451696
 20
500.3682490000009
 10
-4864.49077
 20
500.2126460000018
 10
-4864.529270999999
 20
500.080503000001
 10
-4864.567094
 20
499.9721820000013
 10
-4864.604135
 20
499.8879810000016
 10
-4864.640292
 20
499.8281299999998
 10
-4864.675466999999
 20
499.7927930000023
 10
-4864.709562
 20
499.7820670000018
  0
LINE
  5
54D6
330
53E2
100
AcDbEntity
  8
0
  6
Continuous
100
AcDbLine
 10
-4972.585483999999
 20
503.9140260000022
 30
0.0
 11
-4960.444529999999
 21
503.336319
 31
0.0
  0
LWPOLYLINE
  5
54D7
330
53E2
100
AcDbEntity
  8
0
  6
Continuous
100
AcDbPolyline
 90
       61
 70
     0
 43
0.0
 10
-4873.769602999999
 20
519.234671000002
 10
-4873.733009
 20
519.2192100000011
 10
-4873.697819
 20
519.1764120000007
 10
-4873.664127
 20
519.106396000001
 10
-4873.632028
 20
519.0093530000012
 10
-4873.601608999999
 20
518.8855500000008
 10
-4873.572952
 20
518.7353250000014
 10
-4873.546138
 20
518.5590910000009
 10
-4873.521237999999
 20
518.3573290000022
 10
-4873.498322999999
 20
518.1305950000005
 10
-4873.477452999999
 20
517.8795079999999
 10
-4873.458687
 20
517.6047570000009
 10
-4873.442075999999
 20
517.3070950000019
 10
-4873.427666
 20
516.9873390000011
 10
-4873.415494999999
 20
516.6463630000016
 10
-4873.405597999999
 20
516.2851040000023
 10
-4873.398000999999
 20
515.9045510000014
 10
-4873.392726
 20
515.5057480000014
 10
-4873.389786
 20
515.0897870000007
 10
-4873.389190000001
 20
514.6578079999999
 10
-4873.39094
 20
514.2109960000015
 10
-4873.39503
 20
513.750575
 10
-4873.401448999999
 20
513.2778070000021
 10
-4873.410180999999
 20
512.7939880000012
 10
-4873.421199999999
 20
512.3004450000007
 10
-4873.434477
 20
511.7985290000015
 10
-4873.449974999999
 20
511.2896170000003
 10
-4873.467653
 20
510.7751030000017
 10
-4873.487459999998
 20
510.2563990000017
 10
-4873.509344
 20
509.7349240000021
 10
-4873.533243
 20
509.2121100000022
 10
-4873.559094
 20
508.6893880000025
 10
-4873.586824
 20
508.168192000001
 10
-4873.616357999999
 20
507.6499500000009
 10
-4873.647613999999
 20
507.1360830000012
 10
-4873.680507999999
 20
506.6279980000017
 10
-4873.714949
 20
506.1270900000018
 10
-4873.750841999999
 20
505.6347299999997
 10
-4873.788089
 20
505.1522680000016
 10
-4873.826588999999
 20
504.681026000002
 10
-4873.866235
 20
504.2222970000002
 10
-4873.906918999999
 20
503.7773380000016
 10
-4873.948528999999
 20
503.3473670000002
 10
-4873.990950999999
 20
502.9335650000011
 10
-4874.03407
 20
502.5370640000001
 10
-4874.077767000001
 20
502.1589520000016
 10
-4874.121921
 20
501.8002640000013
 10
-4874.166412999999
 20
501.4619850000017
 10
-4874.21112
 20
501.1450420000019
 10
-4874.255918999999
 20
500.8503020000025
 10
-4874.300687999999
 20
500.5785750000013
 10
-4874.345305000001
 20
500.3306040000007
 10
-4874.389646
 20
500.1070690000014
 10
-4874.433590000001
 20
499.9085840000007
 10
-4874.477017
 20
499.7356920000002
 10
-4874.519807999999
 20
499.5888670000003
 10
-4874.561845
 20
499.4685110000009
 10
-4874.603013999998
 20
499.3749540000008
 10
-4874.643201000001
 20
499.3084540000018
 10
-4874.682296999999
 20
499.2691910000012
 10
-4874.720192999999
 20
499.2572740000014
  0
LINE
  5
54D8
330
53E2
100
AcDbEntity
  8
0
  6
Continuous
100
AcDbLine
 10
-4959.197956999998
 20
528.305290000002
 30
0.0
 11
-4971.407822999999
 21
528.8862750000007
 31
0.0
  0
LINE
  5
54D9
330
53E2
100
AcDbEntity
  8
0
  6
Continuous
100
AcDbLine
 10
-4960.623843
 20
498.3391950000005
 30
0.0
 11
-4972.821016000001
 21
498.919576000002
 31
0.0
  0
LWPOLYLINE
  5
54DA
330
53E2
100
AcDbEntity
  8
0
  6
Continuous
100
AcDbPolyline
 90
        3
 70
     0
 43
0.0
 10
-4959.197956999998
 20
528.305290000002
 10
-4959.294588999999
 20
513.2929160000003
 10
-4960.623843
 20
498.3391950000005
  0
LINE
  5
54DB
330
53E2
100
AcDbEntity
  8
0
  6
Continuous
100
AcDbLine
 10
-4959.294588999999
 20
513.2929160000003
 30
0.0
 11
-4972.114419
 21
513.9029260000007
 31
0.0
  0
LINE
  5
54DC
330
53E2
100
AcDbEntity
  8
0
  6
Continuous
100
AcDbLine
 10
-4958.986048999999
 20
299.0361060000014
 30
0.0
 11
-4884.391358999999
 21
295.4866450000009
 31
0.0
  0
LINE
  5
54DD
330
53E2
100
AcDbEntity
  8
0
  6
Continuous
100
AcDbLine
 10
-4958.035459000001
 20
319.0135020000016
 30
0.0
 11
-4883.465622
 21
315.4652250000018
 31
0.0
  0
LINE
  5
54DE
330
53E2
100
AcDbEntity
  8
0
  6
Continuous
100
AcDbLine
 10
-4694.062222999998
 20
333.4833390000004
 30
0.0
 11
-2018.595202
 21
206.1758410000002
 31
0.0
  0
LINE
  5
54DF
330
53E2
100
AcDbEntity
  8
0
  6
Continuous
100
AcDbLine
 10
-4709.858523999999
 20
464.3820660000001
 30
0.0
 11
-4973.857358
 21
476.9439970000003
 31
0.0
  0
LINE
  5
54E0
330
53E2
100
AcDbEntity
  8
0
  6
Continuous
100
AcDbLine
 10
-4693.986176000001
 20
335.0815300000013
 30
0.0
 11
-2018.382704
 21
207.7675400000007
 31
0.0
  0
LINE
  5
54E1
330
53E2
100
AcDbEntity
  8
0
  6
Continuous
100
AcDbLine
 10
-4715.704652999998
 20
341.5210770000012
 30
0.0
 11
-4979.651452
 21
354.0805310000014
 31
0.0
  0
LINE
  5
54E2
330
53E2
100
AcDbEntity
  8
0
  6
Continuous
100
AcDbLine
 10
-4982.195201
 20
300.1404730000013
 30
0.0
 11
-4970.060702999999
 21
299.5630740000015
 31
0.0
  0
LINE
  5
54E3
330
53E2
100
AcDbEntity
  8
0
  6
Continuous
100
AcDbLine
 10
-4289.641479
 20
271.5914730000022
 30
0.0
 11
-4773.898963999999
 21
294.6340330000003
 31
0.0
  0
LINE
  5
54E4
330
53E2
100
AcDbEntity
  8
0
  6
Continuous
100
AcDbLine
 10
-4773.366634
 20
305.8213750000013
 30
0.0
 11
-4289.109149
 21
282.778816
 31
0.0
  0
LINE
  5
54E5
330
53E2
100
AcDbEntity
  8
0
  6
Continuous
100
AcDbLine
 10
-4774.774972999999
 20
290.2707380000011
 30
0.0
 11
-4829.267481000001
 21
292.863671000001
 31
0.0
  0
LINE
  5
54E6
330
53E2
100
AcDbEntity
  8
0
  6
Continuous
100
AcDbLine
 10
-4773.824383
 20
310.2481350000017
 30
0.0
 11
-4828.316891
 21
312.8410670000012
 31
0.0
  0
LWPOLYLINE
  5
54E7
330
53E2
100
AcDbEntity
  8
0
  6
Continuous
100
AcDbPolyline
 90
       59
 70
     0
 43
0.0
 10
-4774.773925999999
 20
290.292746000001
 10
-4774.742757
 20
290.3240480000022
 10
-4774.702569999999
 20
290.3905490000015
 10
-4774.661400999999
 20
290.4841050000014
 10
-4774.619364
 20
290.6044610000008
 10
-4774.576573
 20
290.7512860000006
 10
-4774.533145999999
 20
290.9241790000015
 10
-4774.489201
 20
291.1226640000005
 10
-4774.44486
 20
291.3461980000011
 10
-4774.400244
 20
291.594169
 10
-4774.355474999999
 20
291.8658970000015
 10
-4774.310674999998
 20
292.1606360000005
 10
-4774.265969
 20
292.4775800000007
 10
-4774.221476999999
 20
292.8158590000021
 10
-4774.177321999999
 20
293.174546000002
 10
-4774.133626000001
 20
293.5526580000005
 10
-4774.090506999999
 20
293.9491590000016
 10
-4774.048084
 20
294.362962000001
 10
-4774.006474
 20
294.7929320000021
 10
-4773.96579
 20
295.237892000001
 10
-4773.926143999999
 20
295.696621000001
 10
-4773.887645000001
 20
296.1678620000021
 10
-4773.850397
 20
296.650324000002
 10
-4773.814503999999
 20
297.1426840000004
 10
-4773.780064
 20
297.6435930000025
 10
-4773.74717
 20
298.1516770000017
 10
-4773.715913
 20
298.6655450000016
 10
-4773.686378999999
 20
299.1837860000014
 10
-4773.658648999999
 20
299.7049830000015
 10
-4773.632798999999
 20
300.2277040000008
 10
-4773.608899
 20
300.7505190000011
 10
-4773.587015999999
 20
301.2719930000021
 10
-4773.567208000001
 20
301.7906980000007
 10
-4773.549530999999
 20
302.3052110000008
 10
-4773.534032999999
 20
302.8141230000019
 10
-4773.520755999999
 20
303.3160390000012
 10
-4773.509736
 20
303.8095830000002
 10
-4773.501004999999
 20
304.2934020000012
 10
-4773.494584999999
 20
304.7661690000004
 10
-4773.490494999999
 20
305.226590000002
 10
-4773.488745999999
 20
305.6734020000022
 10
-4773.489341999999
 20
306.1053810000012
 10
-4773.492281000001
 20
306.5213420000018
 10
-4773.497556999998
 20
306.9201460000022
 10
-4773.505154000001
 20
307.3006990000012
 10
-4773.515051
 20
307.6619580000006
 10
-4773.527220999998
 20
308.0029330000016
 10
-4773.541631999998
 20
308.3226900000009
 10
-4773.558242999999
 20
308.6203510000014
 10
-4773.577008999999
 20
308.8951020000022
 10
-4773.597877999999
 20
309.1461890000009
 10
-4773.620794000001
 20
309.3729240000012
 10
-4773.645693
 20
309.5746850000014
 10
-4773.672507999999
 20
309.7509200000004
 10
-4773.701164
 20
309.9011440000013
 10
-4773.731583999999
 20
310.024948000002
 10
-4773.763682999999
 20
310.121991
 10
-4773.797373999999
 20
310.1920070000015
 10
-4773.825429999998
 20
310.2261270000017
  0
LWPOLYLINE
  5
54E8
330
53E2
100
AcDbEntity
  8
0
  6
Continuous
100
AcDbPolyline
 90
       44
 70
     0
 43
0.0
 10
-4874.873677
 20
296.0348940000003
 10
-4874.872748
 20
296.0142870000018
 10
-4874.854227
 20
295.6823950000016
 10
-4874.833302999999
 20
295.3760480000019
 10
-4874.810034
 20
295.0960860000014
 10
-4874.784481999999
 20
294.8432760000014
 10
-4874.756719999999
 20
294.6183130000027
 10
-4874.726822000001
 20
294.4218110000002
 10
-4874.694869999999
 20
294.2543100000021
 10
-4874.660952
 20
294.1162700000004
 10
-4874.625161
 20
294.0080670000007
 10
-4874.587595999999
 20
293.9299990000018
 10
-4874.548358
 20
293.8822799999998
 10
-4874.507555999999
 20
293.8650410000009
 10
-4874.465301
 20
293.8783280000007
 10
-4874.42171
 20
293.9221060000018
 10
-4874.376900999999
 20
293.9962540000015
 10
-4874.330997999999
 20
294.1005690000002
 10
-4874.284127000001
 20
294.2347660000014
 10
-4874.236414999999
 20
294.3984760000021
 10
-4874.187992999999
 20
294.5912510000017
 10
-4874.138996
 20
294.812562000001
 10
-4874.089555000001
 20
295.0618030000005
 10
-4874.039808
 20
295.3382900000015
 10
-4873.989889999999
 20
295.6412670000009
 10
-4873.939939
 20
295.9699010000022
 10
-4873.890090999999
 20
296.3232930000013
 10
-4873.840483
 20
296.7004750000015
 10
-4873.79125
 20
297.1004110000013
 10
-4873.742528999999
 20
297.522006000001
 10
-4873.694450999999
 20
297.9641040000024
 10
-4873.64715
 20
298.425494000001
 10
-4873.600755
 20
298.9049110000014
 10
-4873.555392
 20
299.401041000001
 10
-4873.511187
 20
299.9125240000012
 10
-4873.46826
 20
300.4379580000005
 10
-4873.426728999999
 20
300.9759030000005
 10
-4873.386708
 20
301.5248850000026
 10
-4873.348306999998
 20
302.0833980000007
 10
-4873.31163
 20
302.6499120000007
 10
-4873.276779
 20
303.222874000001
 10
-4873.243849000001
 20
303.8007140000009
 10
-4873.21293
 20
304.3818470000005
 10
-4873.184107
 20
304.9646820000016
  0
LINE
  5
54E9
330
53E2
100
AcDbEntity
  8
0
  6
Continuous
100
AcDbLine
 10
-4829.672638999999
 20
291.7316480000009
 30
0.0
 11
-4874.535266999999
 21
293.8663590000015
 31
0.0
  0
LINE
  5
54EA
330
53E2
100
AcDbEntity
  8
0
  6
Continuous
100
AcDbLine
 10
-4828.612730999999
 20
314.0064450000009
 30
0.0
 11
-4873.475359
 21
316.1411560000015
 31
0.0
  0
LWPOLYLINE
  5
54EB
330
53E2
100
AcDbEntity
  8
0
  6
Continuous
100
AcDbPolyline
 90
       61
 70
     0
 43
0.0
 10
-4829.672638999999
 20
291.7316480000009
 10
-4829.630384999998
 20
291.7449350000024
 10
-4829.586793
 20
291.7887130000017
 10
-4829.541985
 20
291.8628610000014
 10
-4829.496082
 20
291.9671770000022
 10
-4829.44921
 20
292.1013740000017
 10
-4829.401497999999
 20
292.2650840000006
 10
-4829.353077
 20
292.4578580000016
 10
-4829.304078999999
 20
292.6791700000013
 10
-4829.254638999999
 20
292.9284110000008
 10
-4829.204890999999
 20
293.2048980000018
 10
-4829.154973999999
 20
293.5078740000026
 10
-4829.105022
 20
293.8365090000007
 10
-4829.055173999999
 20
294.1899010000016
 10
-4829.005566
 20
294.5670820000014
 10
-4828.956334
 20
294.9670180000012
 10
-4828.907612000001
 20
295.3886130000028
 10
-4828.859534999999
 20
295.8307120000009
 10
-4828.812233999999
 20
296.2921020000012
 10
-4828.765837999999
 20
296.7715189999999
 10
-4828.720475
 20
297.2676490000012
 10
-4828.676269999999
 20
297.7791320000015
 10
-4828.633342999999
 20
298.3045660000007
 10
-4828.591812
 20
298.8425110000008
 10
-4828.551792
 20
299.3914920000007
 10
-4828.513390000001
 20
299.9500050000006
 10
-4828.476713999998
 20
300.5165190000007
 10
-4828.441863
 20
301.0894820000012
 10
-4828.408932000001
 20
301.6673210000026
 10
-4828.378013
 20
302.2484550000009
 10
-4828.349189999999
 20
302.8312900000019
 10
-4828.322542
 20
303.4142280000015
 10
-4828.298142
 20
303.9956720000009
 10
-4828.276057
 20
304.5740280000009
 10
-4828.256346
 20
305.1477100000011
 10
-4828.239066
 20
305.7151470000008
 10
-4828.224261999999
 20
306.2747830000008
 10
-4828.211975
 20
306.8250840000019
 10
-4828.202240000001
 20
307.3645420000012
 10
-4828.195082
 20
307.8916780000018
 10
-4828.190521999999
 20
308.4050470000002
 10
-4828.188571
 20
308.9032430000025
 10
-4828.189234999999
 20
309.3848990000024
 10
-4828.192513
 20
309.848696000001
 10
-4828.198395
 20
310.2933620000022
 10
-4828.206866000001
 20
310.7176790000012
 10
-4828.217901
 20
311.1204830000006
 10
-4828.231470999999
 20
311.5006700000013
 10
-4828.247539
 20
311.8571980000015
 10
-4828.26606
 20
312.1890910000002
 10
-4828.286984
 20
312.4954380000017
 10
-4828.310254
 20
312.7754000000004
 10
-4828.335805
 20
313.0282100000022
 10
-4828.363566999999
 20
313.253173000001
 10
-4828.393466
 20
313.4496750000017
 10
-4828.425417
 20
313.6171760000016
 10
-4828.459334999999
 20
313.7552160000014
 10
-4828.495125999999
 20
313.8634190000012
 10
-4828.532691999999
 20
313.9414870000019
 10
-4828.571928999999
 20
313.989206000002
 10
-4828.612730999999
 20
314.0064450000009
  0
LWPOLYLINE
  5
54EC
330
53E2
100
AcDbEntity
  8
0
  6
Continuous
100
AcDbPolyline
 90
       44
 70
     0
 43
0.0
 10
-4873.184107
 20
304.9646820000016
 10
-4873.157459
 20
305.5476200000012
 10
-4873.133059
 20
306.1290640000006
 10
-4873.110973000001
 20
306.7074200000007
 10
-4873.091263
 20
307.2811030000011
 10
-4873.073983000001
 20
307.8485400000009
 10
-4873.059179
 20
308.4081760000008
 10
-4873.046892000001
 20
308.958477000002
 10
-4873.037156999998
 20
309.4979350000012
 10
-4873.029999
 20
310.0250710000019
 10
-4873.025437999999
 20
310.5384400000021
 10
-4873.023487999999
 20
311.0366350000022
 10
-4873.024152
 20
311.5182920000007
 10
-4873.02743
 20
311.9820880000025
 10
-4873.033312
 20
312.4267550000004
 10
-4873.041781999998
 20
312.851071000001
 10
-4873.052817999998
 20
313.2538750000003
 10
-4873.066387999999
 20
313.634062000001
 10
-4873.082456
 20
313.9905909999998
 10
-4873.100977
 20
314.3224840000021
 10
-4873.121901000001
 20
314.6288310000018
 10
-4873.14517
 20
314.9087930000023
 10
-4873.170721000001
 20
315.161602000002
 10
-4873.198483999999
 20
315.386566000001
 10
-4873.228381999999
 20
315.5830670000014
 10
-4873.260334000001
 20
315.7505680000013
 10
-4873.294251999999
 20
315.8886090000014
 10
-4873.330043
 20
315.9968110000009
 10
-4873.367608000001
 20
316.0748790000016
 10
-4873.406846
 20
316.1225980000017
 10
-4873.447647999999
 20
316.1398380000028
 10
-4873.489903
 20
316.1265500000009
 10
-4873.533494
 20
316.0827730000019
 10
-4873.578303
 20
316.0086240000019
 10
-4873.624205999998
 20
315.9043090000014
 10
-4873.671077
 20
315.770112000002
 10
-4873.718789000001
 20
315.6064020000012
 10
-4873.76721
 20
315.4136280000003
 10
-4873.816208
 20
315.1923160000006
 10
-4873.865648999999
 20
314.9430750000011
 10
-4873.915395999999
 20
314.6665880000019
 10
-4873.965313999999
 20
314.363612000001
 10
-4874.015265
 20
314.0349770000012
 10
-4874.018146
 20
314.014551000002
  0
LINE
  5
54ED
330
53E2
100
AcDbEntity
  8
0
  6
Continuous
100
AcDbLine
 10
-4874.405580999999
 20
296.0126210000017
 30
0.0
 11
-4884.045572999999
 21
296.4713230000016
 31
0.0
  0
LINE
  5
54EE
330
53E2
100
AcDbEntity
  8
0
  6
Continuous
100
AcDbLine
 10
-4873.55005
 20
313.9922780000016
 30
0.0
 11
-4883.190042
 21
314.4509800000014
 31
0.0
  0
LWPOLYLINE
  5
54EF
330
53E2
100
AcDbEntity
  8
0
  6
Continuous
100
AcDbPolyline
 90
       61
 70
     0
 43
0.0
 10
-4874.405580999999
 20
296.0126210000017
 10
-4874.371485
 20
296.0233470000003
 10
-4874.336310999999
 20
296.0586830000011
 10
-4874.300153
 20
296.1185350000014
 10
-4874.263112999999
 20
296.2027360000011
 10
-4874.22529
 20
296.3110570000008
 10
-4874.186788999999
 20
296.4432000000016
 10
-4874.147715000001
 20
296.5988030000008
 10
-4874.108174999999
 20
296.7774410000002
 10
-4874.068278000001
 20
296.9786220000005
 10
-4874.028134
 20
297.2017960000012
 10
-4873.987850999999
 20
297.4463520000027
 10
-4873.947540999999
 20
297.7116180000012
 10
-4873.907313
 20
297.9968670000017
 10
-4873.867279
 20
298.3013190000002
 10
-4873.827547999999
 20
298.624138000001
 10
-4873.788229
 20
298.9644390000012
 10
-4873.74943
 20
299.3212900000017
 10
-4873.711256
 20
299.6937130000024
 10
-4873.673812999999
 20
300.0806870000015
 10
-4873.637203000001
 20
300.4811500000014
 10
-4873.601527000001
 20
300.8940070000008
 10
-4873.566882999999
 20
301.3181240000013
 10
-4873.533364
 20
301.7523400000009
 10
-4873.501064
 20
302.1954640000004
 10
-4873.470070999999
 20
302.6462820000015
 10
-4873.440468999999
 20
303.1035580000007
 10
-4873.412340000001
 20
303.5660390000012
 10
-4873.385760999999
 20
304.0324570000012
 10
-4873.360805
 20
304.5015330000006
 10
-4873.337540000001
 20
304.9719830000013
 10
-4873.31603
 20
305.442516000001
 10
-4873.296334
 20
305.9118430000017
 10
-4873.278506000001
 20
306.3786770000024
 10
-4873.262593999999
 20
306.8417390000013
 10
-4873.248643
 20
307.2997600000017
 10
-4873.236691
 20
307.7514840000022
 10
-4873.226768999999
 20
308.195673000002
 10
-4873.218907
 20
308.6311100000021
 10
-4873.213124
 20
309.0566000000017
 10
-4873.209437999999
 20
309.4709790000016
 10
-4873.207858
 20
309.8731100000023
 10
-4873.208387999999
 20
310.2618900000016
 10
-4873.211025999999
 20
310.6362550000012
 10
-4873.215767
 20
310.995178000001
 10
-4873.222597
 20
311.3376750000007
 10
-4873.231495999998
 20
311.662808000001
 10
-4873.242441000001
 20
311.9696850000019
 10
-4873.255401
 20
312.2574660000009
 10
-4873.270342
 20
312.525361
 10
-4873.287222000001
 20
312.7726360000015
 10
-4873.305995
 20
312.9986140000001
 10
-4873.326609
 20
313.2026750000004
 10
-4873.349007999999
 20
313.3842590000004
 10
-4873.37313
 20
313.5428700000011
 10
-4873.39891
 20
313.6780720000006
 10
-4873.426277
 20
313.7894940000006
 10
-4873.455155
 20
313.8768320000017
 10
-4873.485466
 20
313.9398460000011
 10
-4873.517126999999
 20
313.978363000002
 10
-4873.55005
 20
313.9922780000016
  0
LINE
  5
54F0
330
53E2
100
AcDbEntity
  8
0
  6
Continuous
100
AcDbLine
 10
-4981.253072
 20
320.1182720000015
 30
0.0
 11
-4969.189958999999
 21
319.5442700000003
 31
0.0
  0
LWPOLYLINE
  5
54F1
330
53E2
100
AcDbEntity
  8
0
  6
Continuous
100
AcDbPolyline
 90
       61
 70
     0
 43
0.0
 10
-4884.416212
 20
295.4878280000012
 10
-4884.378315
 20
295.499745000001
 10
-4884.33922
 20
295.5390080000015
 10
-4884.299032999999
 20
295.6055080000005
 10
-4884.257863999999
 20
295.6990650000007
 10
-4884.215827
 20
295.8194200000016
 10
-4884.173035999999
 20
295.9662460000018
 10
-4884.129609
 20
296.1391380000023
 10
-4884.085664
 20
296.3376230000013
 10
-4884.041322999999
 20
296.5611580000004
 10
-4883.996707
 20
296.8091280000008
 10
-4883.951938
 20
297.0808560000005
 10
-4883.907138000001
 20
297.3755960000017
 10
-4883.862432
 20
297.6925390000015
 10
-4883.81794
 20
298.0308180000011
 10
-4883.773784999999
 20
298.389505000001
 10
-4883.730088999999
 20
298.7676180000017
 10
-4883.686970000001
 20
299.1641180000024
 10
-4883.644548
 20
299.5779210000019
 10
-4883.602937
 20
300.0078920000015
 10
-4883.562253
 20
300.4528510000018
 10
-4883.522606999999
 20
300.91158
 10
-4883.484108000001
 20
301.3828220000014
 10
-4883.44686
 20
301.865283000001
 10
-4883.410966999999
 20
302.3576430000012
 10
-4883.376527000001
 20
302.8585520000015
 10
-4883.343633
 20
303.3666360000006
 10
-4883.312376
 20
303.8805040000007
 10
-4883.282842999999
 20
304.3987460000026
 10
-4883.255112
 20
304.9199420000004
 10
-4883.229261999999
 20
305.4426640000002
 10
-4883.205361999999
 20
305.9654780000019
 10
-4883.183478999999
 20
306.4869520000011
 10
-4883.163671000001
 20
307.0056570000015
 10
-4883.145994
 20
307.5201710000019
 10
-4883.130495999999
 20
308.0290830000013
 10
-4883.117218999999
 20
308.530998000002
 10
-4883.106199
 20
309.024542000001
 10
-4883.097467999999
 20
309.5083610000001
 10
-4883.091048
 20
309.9811290000016
 10
-4883.086957999999
 20
310.441549000001
 10
-4883.085208999999
 20
310.8883620000015
 10
-4883.085805000001
 20
311.3203400000021
 10
-4883.088744000001
 20
311.7363020000011
 10
-4883.094019999998
 20
312.1351050000012
 10
-4883.101617000001
 20
312.5156580000003
 10
-4883.111513999999
 20
312.8769170000014
 10
-4883.123684
 20
313.2178920000006
 10
-4883.138095
 20
313.5376490000017
 10
-4883.154705999999
 20
313.8353110000007
 10
-4883.173472000001
 20
314.1100610000012
 10
-4883.194341000001
 20
314.3611480000018
 10
-4883.217256999998
 20
314.5878830000001
 10
-4883.242156
 20
314.7896440000004
 10
-4883.268970999999
 20
314.9658790000012
 10
-4883.297627000001
 20
315.1161040000025
 10
-4883.328047000001
 20
315.2399070000011
 10
-4883.360145999999
 20
315.3369500000008
 10
-4883.393836999999
 20
315.4069660000005
 10
-4883.429028000001
 20
315.4497630000023
 10
-4883.465622
 20
315.4652250000018
  0
LINE
  5
54F2
330
53E2
100
AcDbEntity
  8
0
  6
Continuous
100
AcDbLine
 10
-4970.319861
 20
294.5697480000017
 30
0.0
 11
-4982.430733
 21
295.1460230000011
 31
0.0
  0
LINE
  5
54F3
330
53E2
100
AcDbEntity
  8
0
  6
Continuous
100
AcDbLine
 10
-4968.893976
 20
324.5358430000015
 30
0.0
 11
-4981.017538999998
 21
325.1127220000017
 31
0.0
  0
LWPOLYLINE
  5
54F4
330
53E2
100
AcDbEntity
  8
0
  6
Continuous
100
AcDbPolyline
 90
        3
 70
     0
 43
0.0
 10
-4970.319861
 20
294.5697480000017
 10
-4968.990608
 20
309.5234700000019
 10
-4968.893976
 20
324.5358430000015
  0
LINE
  5
54F5
330
53E2
100
AcDbEntity
  8
0
  6
Continuous
100
AcDbLine
 10
-4968.990608
 20
309.5234700000019
 30
0.0
 11
-4981.724135999999
 21
310.1293730000016
 31
0.0
  0
LWPOLYLINE
  5
54F6
330
53E2
100
AcDbEntity
  8
0
  6
Continuous
100
AcDbPolyline
 90
       31
 70
     0
 43
0.0
 10
-4959.110989999999
 20
513.2841800000005
 10
-4959.140717999999
 20
512.6830500000014
 10
-4959.172607999999
 20
512.0836740000013
 10
-4959.206572000001
 20
511.4876960000019
 10
-4959.242517
 20
510.896748000001
 10
-4959.280344999999
 20
510.3124510000015
 10
-4959.319952
 20
509.7364070000021
 10
-4959.361229
 20
509.1701930000017
 10
-4959.404064000001
 20
508.6153610000001
 10
-4959.448339000001
 20
508.0734340000017
 10
-4959.493931999999
 20
507.5458960000014
 10
-4959.540719
 20
507.034192000001
 10
-4959.588570999998
 20
506.5397260000009
 10
-4959.637357
 20
506.0638530000014
 10
-4959.686943999999
 20
505.6078770000022
 10
-4959.737196
 20
505.1730480000006
 10
-4959.787973999999
 20
504.7605579999999
 10
-4959.83914
 20
504.3715370000009
 10
-4959.890553
 20
504.0070520000027
 10
-4959.942073
 20
503.6681010000011
 10
-4959.993558
 20
503.3556150000022
 10
-4960.044867999999
 20
503.0704480000022
 10
-4960.09586
 20
502.8133840000009
 10
-4960.146397
 20
502.5851250000014
 10
-4960.196339
 20
502.3862990000016
 10
-4960.245548999999
 20
502.2174500000001
 10
-4960.293893
 20
502.0790410000008
 10
-4960.341237000001
 20
501.9714520000015
 10
-4960.387452999999
 20
501.8949760000014
 10
-4960.432413000001
 20
501.8498240000026
 10
-4960.457166000001
 20
501.8420400000013
  0
LWPOLYLINE
  5
54F7
330
53E2
100
AcDbEntity
  8
0
  6
Continuous
100
AcDbPolyline
 90
        3
 70
     0
 43
0.0
 10
-4958.982646999999
 20
488.2497870000007
 10
-4963.964304
 20
488.4868299999998
 10
-4963.489008999999
 20
498.4755290000012
  0
LINE
  5
54F8
330
53E2
100
AcDbEntity
  8
0
  6
Continuous
100
AcDbLine
 10
-2018.105806999999
 20
213.1604740000021
 30
0.0
 11
-4693.729516
 21
340.4754270000012
 31
0.0
  0
LINE
  5
54F9
330
53E2
100
AcDbEntity
  8
0
  6
Continuous
100
AcDbLine
 10
-4973.932728999998
 20
475.3457730000008
 30
0.0
 11
-4709.934571
 21
462.7838740000024
 31
0.0
  0
LINE
  5
54FA
330
53E2
100
AcDbEntity
  8
0
  6
Continuous
100
AcDbLine
 10
-4979.905827
 20
348.686525000001
 30
0.0
 11
-4715.961312
 21
336.127179000001
 31
0.0
  0
LINE
  5
54FB
330
53E2
100
AcDbEntity
  8
0
  6
Continuous
100
AcDbLine
 10
-2047.039277999999
 20
355.1961910000009
 30
0.0
 11
-2042.761622
 21
445.094476000002
 31
0.0
  0
LINE
  5
54FC
330
53E2
100
AcDbEntity
  8
0
  6
Continuous
100
AcDbLine
 10
-2059.159301
 20
100.4843830000009
 30
0.0
 11
-2054.881646
 21
190.382668000002
 31
0.0
  0
LINE
  5
54FD
330
53E2
100
AcDbEntity
  8
0
  6
Continuous
100
AcDbLine
 10
-2054.881646
 20
190.382668000002
 30
0.0
 11
-2039.247677
 21
189.638753000001
 31
0.0
  0
LINE
  5
54FE
330
53E2
100
AcDbEntity
  8
0
  6
Continuous
100
AcDbLine
 10
-2031.405309
 20
354.4522760000018
 30
0.0
 11
-2047.039277999999
 21
355.1961910000009
 31
0.0
  0
ARC
  5
54FF
330
53E2
100
AcDbEntity
  8
0
  6
Continuous
100
AcDbCircle
 10
-2032.355898999999
 20
334.4748790000013
 30
0.0
 40
20.0
100
AcDbArc
 50
357.275733700012
 51
87.27573369995742
  0
ARC
  5
5500
330
53E2
100
AcDbEntity
  8
0
  6
Continuous
100
AcDbCircle
 10
-2038.297087
 20
209.6161500000016
 30
0.0
 40
20.0
100
AcDbArc
 50
267.2757336999574
 51
357.275733700012
  0
LINE
  5
5501
330
53E2
100
AcDbEntity
  8
0
  6
Continuous
100
AcDbLine
 10
-2018.31969
 20
208.6655600000013
 30
0.0
 11
-2012.378502
 21
333.5242890000009
 31
0.0
  0
LINE
  5
5502
330
53E2
100
AcDbEntity
  8
0
  6
Continuous
100
AcDbLine
 10
2042.598022
 20
250.6996620000009
 30
0.0
 11
2026.200342
 21
-93.91043100000024
 31
0.0
  0
LWPOLYLINE
  5
5503
330
53E2
100
AcDbEntity
  8
0
  6
Continuous
100
AcDbPolyline
 90
        3
 70
     0
 43
0.0
 10
-1976.045223999999
 20
269.224717000001
 10
-1972.436641999999
 20
345.0619110000007
 10
-2006.90933
 20
443.3885070000014
  0
LWPOLYLINE
  5
5504
330
53E2
100
AcDbEntity
  8
0
  6
Continuous
100
AcDbPolyline
 90
        3
 70
     0
 43
0.0
 10
-1976.045223999999
 20
269.224717000001
 10
-1979.653807
 20
193.3875230000012
 10
-2023.307009
 20
98.77841400000034
  0
LWPOLYLINE
  5
5505
330
53E2
100
AcDbEntity
  8
0
  6
Continuous
100
AcDbPolyline
 90
        3
 70
     0
 43
0.0
 10
1959.483942000001
 20
81.95932800000083
 10
1963.092521999999
 20
157.7965230000009
 10
2006.745732000001
 20
252.4056320000018
  0
LWPOLYLINE
  5
5506
330
53E2
100
AcDbEntity
  8
0
  6
Continuous
100
AcDbPolyline
 90
        3
 70
     0
 43
0.0
 10
1959.483942000001
 20
81.95932800000083
 10
1955.875362000001
 20
6.122134000001096
 10
1990.348052000001
 20
-92.20446099999936
  0
LINE
  5
5507
330
53E2
100
AcDbEntity
  8
0
  6
Continuous
100
AcDbLine
 10
2026.200342
 20
-93.91043100000024
 30
0.0
 11
-2059.159301
 21
100.4843830000009
 31
0.0
  0
LINE
  5
5508
330
53E2
100
AcDbEntity
  8
0
  6
Continuous
100
AcDbLine
 10
-2042.761622
 20
445.094476000002
 30
0.0
 11
2042.598022
 21
250.6996620000009
 31
0.0
  0
LINE
  5
5509
330
53E2
100
AcDbEntity
  8
0
  6
Continuous
100
AcDbLine
 10
-5429.750184999999
 20
273.3822980000005
 30
0.0
 11
-5428.253005999999
 21
304.8466980000012
 31
0.0
  0
LINE
  5
550A
330
53E2
100
AcDbEntity
  8
0
  6
Continuous
100
AcDbLine
 10
-5416.037923
 20
561.5562450000015
 30
0.0
 11
-5414.540743999999
 21
593.0206450000005
 31
0.0
  0
LINE
  5
550B
330
53E2
100
AcDbEntity
  8
0
  6
Continuous
100
AcDbLine
 10
-5672.513989000001
 20
560.244944
 30
0.0
 11
-5412.728725
 21
547.8835080000008
 31
0.0
  0
LWPOLYLINE
  5
550C
330
53E2
100
AcDbEntity
  8
0
  6
Continuous
100
AcDbPolyline
 90
        5
 70
     0
 43
0.0
 10
-5411.873195
 20
552.3478910000013
 10
-5411.44543
 20
561.3377200000013
 10
-5521.321111999999
 20
566.5659650000016
 10
-5521.748877
 20
557.5761360000014
 10
-5411.873195
 20
552.3478910000013
  0
LINE
  5
550D
330
53E2
100
AcDbEntity
  8
0
  6
Continuous
100
AcDbLine
 10
-5560.411109999999
 20
559.4158120000011
 30
0.0
 11
-5412.516745999999
 21
552.3785130000014
 31
0.0
  0
LWPOLYLINE
  5
550E
330
53E2
100
AcDbEntity
  8
0
  6
Continuous
100
AcDbPolyline
 90
        4
 70
     0
 43
0.0
 10
-5560.411109999999
 20
559.4158120000011
 10
-5563.547456000001
 20
585.0939020000023
 10
-5646.916668
 20
589.0608820000015
 10
-5677.832053
 20
563.5543450000004
  0
LINE
  5
550F
330
53E2
100
AcDbEntity
  8
0
  6
Continuous
100
AcDbLine
 10
-5567.835363
 20
585.2979340000019
 30
0.0
 11
-5565.511177000001
 21
555.1533990000025
 31
0.0
  0
LINE
  5
5510
330
53E2
100
AcDbEntity
  8
0
  6
Continuous
100
AcDbLine
 10
-5565.493838
 20
555.1525740000015
 30
0.0
 11
-5635.384131000001
 21
558.478183000001
 31
0.0
  0
LINE
  5
5511
330
53E2
100
AcDbEntity
  8
0
  6
Continuous
100
AcDbLine
 10
-5668.159055
 20
557.5348930000018
 30
0.0
 11
-5565.630000999999
 21
552.656224000002
 31
0.0
  0
LINE
  5
5512
330
53E2
100
AcDbEntity
  8
0
  6
Continuous
100
AcDbLine
 10
-5581.493093999999
 20
555.9138710000024
 30
0.0
 11
-5581.611918000001
 21
553.416696000002
 31
0.0
  0
LINE
  5
5513
330
53E2
100
AcDbEntity
  8
0
  6
Continuous
100
AcDbLine
 10
-5631.555409999999
 20
555.7931710000011
 30
0.0
 11
-5631.436586
 21
558.2903460000015
 31
0.0
  0
LINE
  5
5514
330
53E2
100
AcDbEntity
  8
0
  6
Continuous
100
AcDbLine
 10
-5565.493838
 20
555.1525740000015
 30
0.0
 11
-5635.384131000001
 21
558.478183000001
 31
0.0
  0
LINE
  5
5515
330
53E2
100
AcDbEntity
  8
0
  6
Continuous
100
AcDbLine
 10
-5635.384131000001
 20
558.478183000001
 30
0.0
 11
-5412.728725
 21
547.8835080000008
 31
0.0
  0
LINE
  5
5516
330
53E2
100
AcDbEntity
  8
0
  6
Continuous
100
AcDbLine
 10
-5539.80387
 20
558.4352520000011
 30
0.0
 11
-5412.516745999999
 21
552.3785130000014
 31
0.0
  0
LWPOLYLINE
  5
5517
330
53E2
100
AcDbEntity
  8
0
  6
Continuous
100
AcDbPolyline
 90
        4
 70
     0
 43
0.0
 10
-5135.674473999999
 20
247.951817000001
 10
-5135.844417000001
 20
244.3803260000022
 10
-5245.720099
 20
249.6085710000025
 10
-5245.552369999999
 20
253.1335270000018
  0
LWPOLYLINE
  5
5518
330
53E2
100
AcDbEntity
  8
0
  6
Continuous
100
AcDbPolyline
 90
        3
 70
     0
 43
0.0
 10
-5284.341381
 20
616.859276000001
 10
-5278.707628
 20
616.5912030000018
 10
-5277.148972999999
 20
592.4898830000001
  0
LWPOLYLINE
  5
5519
330
53E2
100
AcDbEntity
  8
0
  6
Continuous
100
AcDbPolyline
 90
        5
 70
     0
 43
0.0
 10
-5229.084773
 20
599.2130130000023
 10
-5229.512537999999
 20
590.2231850000025
 10
-5119.636855999999
 20
584.9949390000001
 10
-5119.209090999999
 20
593.9847680000021
 10
-5229.084773
 20
599.2130130000023
  0
LWPOLYLINE
  5
551A
330
53E2
100
AcDbEntity
  8
0
  6
Continuous
100
AcDbPolyline
 90
        5
 70
     0
 43
0.0
 10
-5138.853309
 20
600.9262930000022
 10
-5139.138596999999
 20
594.9330790000021
 10
-4802.519352
 20
578.9156310000016
 10
-4802.234174999999
 20
584.9088500000016
 10
-4984.453301
 20
593.5794340000011
  0
LWPOLYLINE
  5
551B
330
53E2
100
AcDbEntity
  8
0
  6
Continuous
100
AcDbPolyline
 90
        4
 70
     0
 43
0.0
 10
-5138.853309
 20
600.9262930000022
 10
-5115.061645
 20
623.8213620000006
 10
-4988.946688
 20
617.820399000002
 10
-4984.453301
 20
593.5794340000011
  0
LWPOLYLINE
  5
551C
330
53E2
100
AcDbEntity
  8
0
  6
Continuous
100
AcDbPolyline
 90
        3
 70
     0
 43
0.0
 10
-4988.946688
 20
617.820399000002
 10
-4986.883255999999
 20
617.7222140000012
 10
-4981.646349
 20
593.4458700000013
  0
LINE
  5
551D
330
53E2
100
AcDbEntity
  8
0
  6
Continuous
100
AcDbLine
 10
-4937.864398
 20
532.7963920000001
 30
0.0
 11
-4937.650514999999
 21
537.2913060000009
 31
0.0
  0
LINE
  5
551E
330
53E2
100
AcDbEntity
  8
0
  6
Continuous
100
AcDbLine
 10
-4949.509125999998
 20
288.0732820000012
 30
0.0
 11
-4949.723008999999
 21
283.5783680000022
 31
0.0
  0
LINE
  5
551F
330
53E2
100
AcDbEntity
  8
0
  6
Continuous
100
AcDbLine
 10
-4781.826821000001
 20
529.8767030000017
 30
0.0
 11
-4947.639213999998
 21
537.7666010000011
 31
0.0
  0
LINE
  5
5520
330
53E2
100
AcDbEntity
  8
0
  6
Continuous
100
AcDbLine
 10
-4939.813108
 20
491.8427290000018
 30
0.0
 11
-4940.02699
 21
487.3478140000006
 31
0.0
  0
LINE
  5
5521
330
53E2
100
AcDbEntity
  8
0
  6
Continuous
100
AcDbLine
 10
-4782.040703999999
 20
525.3817890000009
 30
0.0
 11
-4781.826821000001
 21
529.8767030000017
 31
0.0
  0
LINE
  5
5522
330
53E2
100
AcDbEntity
  8
0
  6
Continuous
100
AcDbLine
 10
-4947.853095999999
 20
533.2716870000021
 30
0.0
 11
-4782.040703999999
 21
525.3817890000009
 31
0.0
  0
LWPOLYLINE
  5
5523
330
53E2
100
AcDbEntity
  8
0
  6
Continuous
100
AcDbPolyline
 90
        3
 70
     0
 43
0.0
 10
-4961.623390999999
 20
538.4320140000018
 10
-4947.639213999998
 20
537.7666010000011
 10
-4950.015689
 20
487.8231090000008
  0
LINE
  5
5524
330
53E2
100
AcDbEntity
  8
0
  6
Continuous
100
AcDbLine
 10
-4956.618887999999
 20
538.1938829999999
 30
0.0
 11
-4958.995364
 21
488.2503920000017
 31
0.0
  0
LINE
  5
5525
330
53E2
100
AcDbEntity
  8
0
  6
Continuous
100
AcDbLine
 10
-4959.497825
 20
288.5485770000014
 30
0.0
 11
-4793.685432
 21
280.6586800000005
 31
0.0
  0
LINE
  5
5526
330
53E2
100
AcDbEntity
  8
0
  6
Continuous
100
AcDbLine
 10
-4793.899315
 20
276.1637650000011
 30
0.0
 11
-4959.711708000001
 21
284.0536630000024
 31
0.0
  0
LINE
  5
5527
330
53E2
100
AcDbEntity
  8
0
  6
Continuous
100
AcDbLine
 10
-4793.685432
 20
280.6586800000005
 30
0.0
 11
-4793.899315
 21
276.1637650000011
 31
0.0
  0
LINE
  5
5528
330
53E2
100
AcDbEntity
  8
0
  6
Continuous
100
AcDbLine
 10
-4947.560416999999
 20
329.0269460000018
 30
0.0
 11
-4947.346534000001
 21
333.5218600000026
 31
0.0
  0
LINE
  5
5529
330
53E2
100
AcDbEntity
  8
0
  6
Continuous
100
AcDbLine
 10
-4968.691381999999
 20
284.4809450000012
 30
0.0
 11
-4966.314907
 21
334.4244370000015
 31
0.0
  0
LWPOLYLINE
  5
552A
330
53E2
100
AcDbEntity
  8
0
  6
Continuous
100
AcDbPolyline
 90
        3
 70
     0
 43
0.0
 10
-4973.695884999999
 20
284.7190760000012
 10
-4959.711708000001
 20
284.0536630000024
 10
-4957.335232
 20
333.9971550000009
  0
LINE
  5
552B
330
53E2
100
AcDbEntity
  8
0
  6
Continuous
100
AcDbLine
 10
-5155.773922999999
 20
245.3286370000005
 30
0.0
 11
-4191.865752
 21
199.4627240000027
 31
0.0
  0
ARC
  5
552C
330
53E2
100
AcDbEntity
  8
0
  6
Continuous
100
AcDbCircle
 10
-4303.275046000001
 20
277.8465390000001
 30
0.0
 40
15.0
100
AcDbArc
 50
267.2757336999574
 51
87.27573369995742
  0
LINE
  5
552D
330
53E2
100
AcDbEntity
  8
0
  6
Continuous
100
AcDbLine
 10
-4303.987988999999
 20
262.8634920000004
 30
0.0
 11
-4493.773256999999
 21
271.8940980000007
 31
0.0
  0
LINE
  5
552E
330
53E2
100
AcDbEntity
  8
0
  6
Continuous
100
AcDbLine
 10
-4492.347372
 20
301.8601930000023
 30
0.0
 11
-4302.562103999998
 21
292.829587000002
 31
0.0
  0
ARC
  5
552F
330
53E2
100
AcDbEntity
  8
0
  6
Continuous
100
AcDbCircle
 10
-4293.579027999999
 20
481.6159860000007
 30
0.0
 40
15.0
100
AcDbArc
 50
267.2757336999574
 51
87.27573369995742
  0
LINE
  5
5530
330
53E2
100
AcDbEntity
  8
0
  6
Continuous
100
AcDbLine
 10
-4292.866084999999
 20
496.5990330000003
 30
0.0
 11
-4482.651354
 21
505.6296390000007
 31
0.0
  0
LINE
  5
5531
330
53E2
100
AcDbEntity
  8
0
  6
Continuous
100
AcDbLine
 10
-4484.077239
 20
475.6635440000009
 30
0.0
 11
-4294.29197
 21
466.6329380000024
 31
0.0
  0
LINE
  5
5532
330
53E2
100
AcDbEntity
  8
0
  6
Continuous
100
AcDbLine
 10
1720.902841999999
 20
292.5369570000021
 30
0.0
 11
1860.544841999999
 21
285.8923330000016
 31
0.0
  0
LWPOLYLINE
  5
5533
330
53E2
100
AcDbEntity
  8
0
  6
Continuous
100
AcDbPolyline
 90
        6
 70
     0
 43
0.0
 10
1859.713072
 20
268.4121110000015
 10
1860.544841999999
 20
285.8923330000016
 10
1859.593502000002
 20
286.9387320000024
 10
1721.949242
 20
293.488298000002
 10
1720.902841999999
 20
292.5369570000021
 10
1720.071071999999
 20
275.0567350000019
  0
ARC
  5
5534
330
53E2
100
AcDbEntity
  8
0
  6
Continuous
100
AcDbCircle
 10
2039.416632
 20
120.7039550000008
 30
0.0
 40
13.0
100
AcDbArc
 50
357.275733700012
 51
87.27573369995742
  0
LINE
  5
5535
330
53E2
100
AcDbEntity
  8
0
  6
Continuous
100
AcDbLine
 10
2052.401942000001
 20
120.086072
 30
0.0
 11
2048.361932
 21
35.18213600000127
 31
0.0
  0
ARC
  5
5536
330
53E2
100
AcDbEntity
  8
0
  6
Continuous
100
AcDbCircle
 10
2035.376622
 20
35.80001900000025
 30
0.0
 40
13.0
100
AcDbArc
 50
267.2757336999574
 51
357.275733700012
  0
LINE
  5
5537
330
53E2
100
AcDbEntity
  8
0
  6
Continuous
100
AcDbLine
 10
2034.758742
 20
22.8147110000009
 30
0.0
 11
2031.761291999999
 21
22.95734000000084
 31
0.0
  0
ARC
  5
5538
330
53E2
100
AcDbEntity
  8
0
  6
Continuous
100
AcDbCircle
 10
2039.416632
 20
120.7039550000008
 30
0.0
 40
7.0
100
AcDbArc
 50
357.275733700012
 51
87.27573369995742
  0
LINE
  5
5539
330
53E2
100
AcDbEntity
  8
0
  6
Continuous
100
AcDbLine
 10
2039.749341999999
 20
127.6960440000002
 30
0.0
 11
2036.751892
 21
127.8386720000016
 31
0.0
  0
ARC
  5
553A
330
53E2
100
AcDbEntity
  8
0
  6
Continuous
100
AcDbCircle
 10
2035.376622
 20
35.80001900000025
 30
0.0
 40
7.0
100
AcDbArc
 50
267.2757336999574
 51
357.275733700012
  0
LINE
  5
553B
330
53E2
100
AcDbEntity
  8
0
  6
Continuous
100
AcDbLine
 10
2037.037071999999
 20
133.8318909999998
 30
0.0
 11
2040.034512
 21
133.689263000002
 31
0.0
  0
LINE
  5
553C
330
53E2
100
AcDbEntity
  8
0
  6
Continuous
100
AcDbLine
 10
2032.046472
 20
28.95055900000079
 30
0.0
 11
2035.043921999999
 21
28.80793000000085
 31
0.0
  0
LINE
  5
553D
330
53E2
100
AcDbEntity
  8
0
  6
Continuous
100
AcDbLine
 10
-4186.875153999999
 20
304.3440570000021
 30
0.0
 11
-3837.270712
 21
287.7087310000007
 31
0.0
  0
LINE
  5
553E
330
53E2
100
AcDbEntity
  8
0
  6
Continuous
100
AcDbLine
 10
-4361.676723999999
 20
312.6616890000005
 30
0.0
 11
-4186.875153999999
 21
304.3440570000021
 31
0.0
  0
LINE
  5
553F
330
53E2
100
AcDbEntity
  8
0
  6
Continuous
100
AcDbLine
 10
-4361.439077
 20
317.6560380000028
 30
0.0
 11
-4361.676723999999
 21
312.6616890000005
 31
0.0
  0
LINE
  5
5540
330
53E2
100
AcDbEntity
  8
0
  6
Continuous
100
AcDbLine
 10
-4355.260240999999
 20
447.5091170000013
 30
0.0
 11
-4355.022594
 21
452.5034660000001
 31
0.0
  0
LINE
  5
5541
330
53E2
100
AcDbEntity
  8
0
  6
Continuous
100
AcDbLine
 10
-4180.221024
 20
444.1858340000017
 30
0.0
 11
-3830.616582000001
 21
427.5505070000017
 31
0.0
  0
LINE
  5
5542
330
53E2
100
AcDbEntity
  8
0
  6
Continuous
100
AcDbLine
 10
-4355.022594
 20
452.5034660000001
 30
0.0
 11
-4180.221024
 21
444.1858340000017
 31
0.0
  0
LINE
  5
5543
330
53E2
100
AcDbEntity
  8
0
  6
Continuous
100
AcDbLine
 10
-3837.270712
 20
287.7087310000007
 30
0.0
 11
-2084.254307
 21
204.2944590000006
 31
0.0
  0
LINE
  5
5544
330
53E2
100
AcDbEntity
  8
0
  6
Continuous
100
AcDbLine
 10
-3830.616582000001
 20
427.5505070000017
 30
0.0
 11
-2077.600176999999
 21
344.1362360000003
 31
0.0
  0
LINE
  5
5545
330
53E2
100
AcDbEntity
  8
0
  6
Continuous
100
AcDbLine
 10
-2084.254307
 20
204.2944590000006
 30
0.0
 11
-2020.134016
 21
201.2434050000011
 31
0.0
  0
LINE
  5
5546
330
53E2
100
AcDbEntity
  8
0
  6
Continuous
100
AcDbLine
 10
-2077.600176999999
 20
344.1362360000003
 30
0.0
 11
-2013.479885
 21
341.0851820000025
 31
0.0
  0
LINE
  5
5547
330
53E2
100
AcDbEntity
  8
0
  6
Continuous
100
AcDbLine
 10
-4186.951201
 20
302.7458650000008
 30
0.0
 11
-3837.346759000001
 21
286.1105390000012
 31
0.0
  0
LINE
  5
5548
330
53E2
100
AcDbEntity
  8
0
  6
Continuous
100
AcDbLine
 10
-4191.865752
 20
199.4627240000027
 30
0.0
 11
-3842.26131
 21
182.8273980000012
 31
0.0
  0
LINE
  5
5549
330
53E2
100
AcDbEntity
  8
0
  6
Continuous
100
AcDbLine
 10
-4136.931662000001
 20
301.9675820000011
 30
0.0
 11
-3837.270712
 21
287.7087310000007
 31
0.0
  0
LINE
  5
554A
330
53E2
100
AcDbEntity
  8
0
  6
Continuous
100
AcDbLine
 10
-4361.439077
 20
317.6560380000028
 30
0.0
 11
-4361.752772
 21
311.063497000001
 31
0.0
  0
LINE
  5
554B
330
53E2
100
AcDbEntity
  8
0
  6
Continuous
100
AcDbLine
 10
-4355.260240999999
 20
447.5091170000013
 30
0.0
 11
-4354.946547000001
 21
454.1016580000014
 31
0.0
  0
LINE
  5
554C
330
53E2
100
AcDbEntity
  8
0
  6
Continuous
100
AcDbLine
 10
-4180.144976
 20
445.7840250000008
 30
0.0
 11
-3830.540534
 21
429.1486990000012
 31
0.0
  0
LINE
  5
554D
330
53E2
100
AcDbEntity
  8
0
  6
Continuous
100
AcDbLine
 10
-4180.221024
 20
444.1858340000017
 30
0.0
 11
-3830.616582000001
 21
427.5505070000017
 31
0.0
  0
LINE
  5
554E
330
53E2
100
AcDbEntity
  8
0
  6
Continuous
100
AcDbLine
 10
16.63532700000178
 20
349.6044420000016
 30
0.0
 11
-1326.845575999999
 21
413.5316710000024
 31
0.0
  0
LINE
  5
554F
330
53E2
100
AcDbEntity
  8
0
  6
Continuous
100
AcDbLine
 10
-1326.845575999999
 20
413.5316710000024
 30
0.0
 11
-2072.609578999999
 21
449.0175690000014
 31
0.0
  0
LINE
  5
5550
330
53E2
100
AcDbEntity
  8
0
  6
Continuous
100
AcDbLine
 10
-2077.52413
 20
345.7344280000016
 30
0.0
 11
-2014.13368
 21
342.7181020000026
 31
0.0
  0
LINE
  5
5551
330
53E2
100
AcDbEntity
  8
0
  6
Continuous
100
AcDbLine
 10
-2072.609578999999
 20
449.0175690000014
 30
0.0
 11
-3825.625984000001
 21
532.431840000001
 31
0.0
  0
LINE
  5
5552
330
53E2
100
AcDbEntity
  8
0
  6
Continuous
100
AcDbLine
 10
-2089.244905
 20
99.41312600000129
 30
0.0
 11
0.0
 21
0.0
 31
0.0
  0
LINE
  5
5553
330
53E2
100
AcDbEntity
  8
0
  6
Continuous
100
AcDbLine
 10
-2084.330354
 20
202.6962670000012
 30
0.0
 11
-2020.939903999999
 21
199.6799420000007
 31
0.0
  0
LINE
  5
5554
330
53E2
100
AcDbEntity
  8
0
  6
Continuous
100
AcDbLine
 10
-3830.540534
 20
429.1486990000012
 30
0.0
 11
-2077.52413
 21
345.7344280000016
 31
0.0
  0
LINE
  5
5555
330
53E2
100
AcDbEntity
  8
0
  6
Continuous
100
AcDbLine
 10
-3780.67309
 20
425.1740320000008
 30
0.0
 11
-2077.600176999999
 21
344.1362360000003
 31
0.0
  0
LINE
  5
5556
330
53E2
100
AcDbEntity
  8
0
  6
Continuous
100
AcDbLine
 10
-3842.26131
 20
182.8273980000012
 30
0.0
 11
-2089.244905
 21
99.41312600000129
 31
0.0
  0
LINE
  5
5557
330
53E2
100
AcDbEntity
  8
0
  6
Continuous
100
AcDbLine
 10
-3837.346759000001
 20
286.1105390000012
 30
0.0
 11
-2084.330354
 21
202.6962670000012
 31
0.0
  0
LINE
  5
5558
330
53E2
100
AcDbEntity
  8
0
  6
Continuous
100
AcDbLine
 10
-3787.327220000001
 20
285.3322550000012
 30
0.0
 11
-2084.254307
 21
204.2944590000006
 31
0.0
  0
LINE
  5
5559
330
53E2
100
AcDbEntity
  8
0
  6
Continuous
100
AcDbLine
 10
-4697.296479999999
 20
328.6315780000005
 30
0.0
 11
-4697.177656
 21
331.1287530000009
 31
0.0
  0
LINE
  5
555A
330
53E2
100
AcDbEntity
  8
0
  6
Continuous
100
AcDbLine
 10
-4690.761173000001
 20
465.9761800000015
 30
0.0
 11
-4690.642348999999
 21
468.473355
 31
0.0
  0
LINE
  5
555B
330
53E2
100
AcDbEntity
  8
0
  6
Continuous
100
AcDbLine
 10
-4706.624266999999
 20
469.2338270000018
 30
0.0
 11
-4706.743089999999
 21
466.7366520000014
 31
0.0
  0
LINE
  5
555C
330
53E2
100
AcDbEntity
  8
0
  6
Continuous
100
AcDbLine
 10
-4713.159572999999
 20
331.8892250000008
 30
0.0
 11
-4713.278396999999
 21
329.3920500000004
 31
0.0
  0
LWPOLYLINE
  5
555D
330
53E2
100
AcDbEntity
  8
0
  6
Continuous
100
AcDbPolyline
 90
        5
 70
     0
 43
0.0
 10
-4694.181046999999
 20
330.9861640000018
 10
-4687.764563999999
 20
465.8335920000008
 10
-4709.7397
 20
466.8792410000005
 10
-4716.156183000001
 20
332.0318130000014
 10
-4694.181046999999
 20
330.9861640000018
  0
LINE
  5
555E
330
53E2
100
AcDbEntity
  8
0
  6
Continuous
100
AcDbLine
 10
-4355.022594
 20
452.5034660000001
 30
0.0
 11
-4180.221024
 21
444.1858340000017
 31
0.0
  0
LINE
  5
555F
330
53E2
100
AcDbEntity
  8
0
  6
Continuous
100
AcDbLine
 10
-4354.946547000001
 20
454.1016580000014
 30
0.0
 11
-4180.144976
 21
445.7840250000008
 31
0.0
  0
LINE
  5
5560
330
53E2
100
AcDbEntity
  8
0
  6
Continuous
100
AcDbLine
 10
-4361.676723999999
 20
312.6616890000005
 30
0.0
 11
-4186.875153999999
 21
304.3440570000021
 31
0.0
  0
LINE
  5
5561
330
53E2
100
AcDbEntity
  8
0
  6
Continuous
100
AcDbLine
 10
-4361.752772
 20
311.063497000001
 30
0.0
 11
-4186.951201
 21
302.7458650000008
 31
0.0
  0
LWPOLYLINE
  5
5562
330
53E2
100
AcDbEntity
  8
0
  6
Continuous
100
AcDbPolyline
 90
        6
 70
     0
 43
0.0
 10
-4690.114771999999
 20
479.5608100000026
 10
-4689.786817999999
 20
486.4530120000018
 10
-4692.640839
 20
489.5922100000025
 10
-4702.629537999999
 20
490.0675050000009
 10
-4705.768736
 20
487.2134840000017
 10
-4706.096689
 20
480.3212820000007
  0
LWPOLYLINE
  5
5563
330
53E2
100
AcDbEntity
  8
0
  6
Continuous
100
AcDbPolyline
 90
        4
 70
     0
 43
0.0
 10
-4713.805974999999
 20
318.3045950000015
 10
-4714.133927999999
 20
311.4123930000023
 10
-4711.279907
 20
308.2731950000016
 10
-4701.291209
 20
307.7979000000014
  0
CIRCLE
  5
5564
330
53E2
100
AcDbEntity
  8
0
  6
Continuous
100
AcDbCircle
 10
-4697.920365
 20
483.8366380000024
 30
0.0
 40
2.0
  0
CIRCLE
  5
5565
330
53E2
100
AcDbEntity
  8
0
  6
Continuous
100
AcDbCircle
 10
-4706.000380999999
 20
314.0287670000016
 30
0.0
 40
2.0
  0
LINE
  5
5566
330
53E2
100
AcDbEntity
  8
0
  6
Continuous
100
AcDbLine
 10
-4689.786817999999
 20
486.4530120000018
 30
0.0
 11
-4705.768736
 21
487.2134840000017
 31
0.0
  0
LINE
  5
5567
330
53E2
100
AcDbEntity
  8
0
  6
Continuous
100
AcDbLine
 10
-4714.133927999999
 20
311.4123930000023
 30
0.0
 11
-4698.152011
 21
310.6519210000024
 31
0.0
  0
LWPOLYLINE
  5
5568
330
53E2
100
AcDbEntity
  8
0
  6
Continuous
100
AcDbPolyline
 90
        3
 70
     0
 43
0.0
 10
-4701.291209
 20
307.7979000000014
 10
-4698.152011
 20
310.6519210000024
 10
-4697.824057
 20
317.5441230000015
  0
LWPOLYLINE
  5
5569
330
53E2
100
AcDbEntity
  8
0
  6
Continuous
100
AcDbPolyline
 90
        5
 70
     0
 43
0.0
 10
-4686.119291999999
 20
479.3706920000004
 10
-4710.092169
 20
480.5114000000012
 10
-4710.168216
 20
478.9132079999999
 10
-4686.19534
 20
477.7725000000009
 10
-4686.119291999999
 20
479.3706920000004
  0
LWPOLYLINE
  5
556A
330
53E2
100
AcDbEntity
  8
0
  6
Continuous
100
AcDbPolyline
 90
        5
 70
     0
 43
0.0
 10
-4717.801453999999
 20
318.4947130000019
 10
-4693.828577999998
 20
317.354005000001
 10
-4693.752531
 20
318.9521970000005
 10
-4717.725406999999
 20
320.0929050000013
 10
-4717.801453999999
 20
318.4947130000019
  0
LWPOLYLINE
  5
556B
330
53E2
100
AcDbEntity
  8
0
  6
Continuous
100
AcDbPolyline
 90
        5
 70
     0
 43
0.0
 10
-4682.413742999999
 20
473.0874680000015
 10
-4714.377577999999
 20
474.6084120000014
 10
-4714.615224999999
 20
469.6140630000027
 10
-4682.651390999999
 20
468.093119000001
 10
-4682.413742999999
 20
473.0874680000015
  0
LWPOLYLINE
  5
556C
330
53E2
100
AcDbEntity
  8
0
  6
Continuous
100
AcDbPolyline
 90
        5
 70
     0
 43
0.0
 10
-4721.507003000001
 20
324.7779370000007
 10
-4689.543169
 20
323.2569930000009
 10
-4689.305521
 20
328.2513420000014
 10
-4721.269355999999
 20
329.7722860000013
 10
-4721.507003000001
 20
324.7779370000007
  0
LWPOLYLINE
  5
556D
330
53E2
100
AcDbEntity
  8
0
  6
Continuous
100
AcDbPolyline
 90
        5
 70
     0
 43
0.0
 10
-4714.377577999999
 20
474.6084120000014
 10
-4682.413742999999
 20
473.0874680000015
 10
-4682.199859999998
 20
477.5823820000023
 10
-4714.163694999998
 20
479.1033260000022
 10
-4714.377577999999
 20
474.6084120000014
  0
LWPOLYLINE
  5
556E
330
53E2
100
AcDbEntity
  8
0
  6
Continuous
100
AcDbPolyline
 90
        5
 70
     0
 43
0.0
 10
-4721.720885999999
 20
320.2830230000018
 10
-4689.757051
 20
318.7620790000019
 10
-4689.543169
 20
323.2569930000009
 10
-4721.507003000001
 20
324.7779370000007
 10
-4721.720885999999
 20
320.2830230000018
  0
LWPOLYLINE
  5
556F
330
53E2
100
AcDbEntity
  8
0
  6
Continuous
100
AcDbPolyline
 90
        4
 70
     0
 43
0.0
 10
1977.790992
 20
256.2862220000006
 10
1978.076171999999
 20
262.2794410000006
 10
1397.858452
 20
289.8881030000012
 10
1397.573272
 20
283.8948840000012
  0
LINE
  5
5570
330
53E2
100
AcDbEntity
  8
0
  6
Continuous
100
AcDbLine
 10
1701.986091999999
 20
-105.0132369999974
 30
0.0
 11
1841.628102000001
 21
-111.6578609999997
 31
0.0
  0
LWPOLYLINE
  5
5571
330
53E2
100
AcDbEntity
  8
0
  6
Continuous
100
AcDbPolyline
 90
        6
 70
     0
 43
0.0
 10
1842.483632000001
 20
-93.678203999998
 10
1841.628102000001
 20
-111.6578609999997
 10
1840.581702000001
 20
-112.6092019999978
 10
1702.937432
 20
-106.0596359999981
 10
1701.986091999999
 20
-105.0132369999974
 10
1702.841622
 20
-87.03357999999935
  0
ARC
  5
5572
330
53E2
100
AcDbEntity
  8
0
  6
Continuous
100
AcDbCircle
 10
-3334.875488
 20
-459.3413659999987
 30
0.0
 40
33.0
100
AcDbArc
 50
180.0
 51
270.0
  0
ARC
  5
5573
330
53E2
100
AcDbEntity
  8
0
  6
Continuous
100
AcDbCircle
 10
-3334.875488
 20
-25.34136599999874
 30
0.0
 40
33.0
100
AcDbArc
 50
90.0
 51
180.0
  0
ARC
  5
5574
330
53E2
100
AcDbEntity
  8
0
  6
Continuous
100
AcDbCircle
 10
-3097.675488
 20
-459.3413659999987
 30
0.0
 40
33.0
100
AcDbArc
 50
270.0
 51
0.0
  0
ARC
  5
5575
330
53E2
100
AcDbEntity
  8
0
  6
Continuous
100
AcDbCircle
 10
-3097.675488
 20
-25.34136599999874
 30
0.0
 40
33.0
100
AcDbArc
 50
0.0
 51
90.0
  0
ARC
  5
5576
330
53E2
100
AcDbEntity
  8
0
  6
Continuous
100
AcDbCircle
 10
-2837.462025
 20
-42.34136599999874
 30
0.0
 40
33.0
100
AcDbArc
 50
0.0
 51
90.0
  0
ARC
  5
5577
330
53E2
100
AcDbEntity
  8
0
  6
Continuous
100
AcDbCircle
 10
-2623.875488
 20
-442.3413659999987
 30
0.0
 40
33.0
100
AcDbArc
 50
270.0
 51
0.0
  0
ARC
  5
5578
330
53E2
100
AcDbEntity
  8
0
  6
Continuous
100
AcDbCircle
 10
-2422.726633
 20
-442.3413659999987
 30
0.0
 40
33.0
100
AcDbArc
 50
270.0
 51
0.0
  0
ARC
  5
5579
330
53E2
100
AcDbEntity
  8
0
  6
Continuous
100
AcDbCircle
 10
-2623.875488
 20
-42.34136599999874
 30
0.0
 40
33.0
100
AcDbArc
 50
0.0
 51
90.0
  0
ARC
  5
557A
330
53E2
100
AcDbEntity
  8
0
  6
Continuous
100
AcDbCircle
 10
-2422.726633
 20
-42.34136599999874
 30
0.0
 40
33.0
100
AcDbArc
 50
0.0
 51
90.0
  0
ARC
  5
557B
330
53E2
100
AcDbEntity
  8
0
  6
Continuous
100
AcDbCircle
 10
-2837.462025
 20
-442.3413659999987
 30
0.0
 40
33.0
100
AcDbArc
 50
270.0
 51
0.0
  0
LINE
  5
557C
330
53E2
100
AcDbEntity
  8
0
  6
Continuous
100
AcDbLine
 10
-3068.813749
 20
-475.3413659999987
 30
0.0
 11
-2600.875488
 21
-475.3413659999987
 31
0.0
  0
LINE
  5
557D
330
53E2
100
AcDbEntity
  8
0
  6
Continuous
100
AcDbLine
 10
-3317.875488
 20
-492.3413659999987
 30
0.0
 11
-3317.875488
 21
-509.3413659999987
 31
0.0
  0
LINE
  5
557E
330
53E2
100
AcDbEntity
  8
0
  6
Continuous
100
AcDbLine
 10
-2600.875488
 20
-9.341365999998743
 30
0.0
 11
-3068.813749
 21
-9.341365999998743
 31
0.0
  0
LINE
  5
557F
330
53E2
100
AcDbEntity
  8
0
  6
Continuous
100
AcDbLine
 10
-3317.875488
 20
24.65863400000126
 30
0.0
 11
-3317.875488
 21
7.658634000001256
 31
0.0
  0
LINE
  5
5580
330
53E2
100
AcDbEntity
  8
0
  6
Continuous
100
AcDbLine
 10
-2590.875488
 20
-442.3413659999987
 30
0.0
 11
-2590.875488
 21
-42.34136599999874
 31
0.0
  0
LINE
  5
5581
330
53E2
100
AcDbEntity
  8
0
  6
Continuous
100
AcDbLine
 10
-2782.726633000001
 20
-475.3413659999987
 30
0.0
 11
-2422.726633
 21
-475.3413659999987
 31
0.0
  0
LINE
  5
5582
330
53E2
100
AcDbEntity
  8
0
  6
Continuous
100
AcDbLine
 10
-2389.726633
 20
-442.3413659999987
 30
0.0
 11
-2389.726633
 21
-42.34136599999874
 31
0.0
  0
LINE
  5
5583
330
53E2
100
AcDbEntity
  8
0
  6
Continuous
100
AcDbLine
 10
-2422.726633
 20
-9.341365999998743
 30
0.0
 11
-2782.726633000001
 21
-9.341365999998743
 31
0.0
  0
LINE
  5
5584
330
53E2
100
AcDbEntity
  8
0
  6
Continuous
100
AcDbLine
 10
-3367.875488
 20
-25.34136599999874
 30
0.0
 11
-3367.875488
 21
-459.3413659999987
 31
0.0
  0
LINE
  5
5585
330
53E2
100
AcDbEntity
  8
0
  6
Continuous
100
AcDbLine
 10
-3334.875488
 20
-492.3413659999987
 30
0.0
 11
-3097.675488
 21
-492.3413659999987
 31
0.0
  0
LINE
  5
5586
330
53E2
100
AcDbEntity
  8
0
  6
Continuous
100
AcDbLine
 10
-2804.462025
 20
-442.3413659999987
 30
0.0
 11
-2804.462025
 21
-42.34136599999874
 31
0.0
  0
LINE
  5
5587
330
53E2
100
AcDbEntity
  8
0
  6
Continuous
100
AcDbLine
 10
-3064.675488
 20
-459.3413659999987
 30
0.0
 11
-3064.675488
 21
-25.34136599999874
 31
0.0
  0
LINE
  5
5588
330
53E2
100
AcDbEntity
  8
0
  6
Continuous
100
AcDbLine
 10
-3097.675488
 20
7.658634000001256
 30
0.0
 11
-3334.875488
 21
7.658634000001256
 31
0.0
  0
ARC
  5
5589
330
53E2
100
AcDbEntity
  8
0
  6
Continuous
100
AcDbCircle
 10
-2600.875488
 20
-492.3413659999987
 30
0.0
 40
17.0
100
AcDbArc
 50
270.0
 51
90.0
  0
ARC
  5
558A
330
53E2
100
AcDbEntity
  8
0
  6
Continuous
100
AcDbCircle
 10
-2600.875488
 20
7.658634000001256
 30
0.0
 40
17.0
100
AcDbArc
 50
270.0
 51
90.0
  0
LINE
  5
558B
330
53E2
100
AcDbEntity
  8
0
  6
Continuous
100
AcDbLine
 10
-2600.875488
 20
-509.3413659999987
 30
0.0
 11
-3317.875488
 21
-509.3413659999987
 31
0.0
  0
LINE
  5
558C
330
53E2
100
AcDbEntity
  8
0
  6
Continuous
100
AcDbLine
 10
-3317.875488
 20
24.65863400000126
 30
0.0
 11
-2600.875488
 21
24.65863400000126
 31
0.0
  0
LINE
  5
558D
330
53E2
100
AcDbEntity
  8
0
  6
Continuous
100
AcDbLine
 10
-3076.275487999999
 20
-890.3413659999987
 30
0.0
 11
-3076.275487999999
 21
-749.5364949999993
 31
0.0
  0
LINE
  5
558E
330
53E2
100
AcDbEntity
  8
0
  6
Continuous
100
AcDbLine
 10
-3412.327685999999
 20
-903.9413659999992
 30
0.0
 11
-3089.875488
 21
-903.9413659999992
 31
0.0
  0
LINE
  5
558F
330
53E2
100
AcDbEntity
  8
0
  6
Continuous
100
AcDbLine
 10
-3103.475488
 20
-876.7413659999984
 30
0.0
 11
-3369.156059
 21
-876.7413659999984
 31
0.0
  0
LINE
  5
5590
330
53E2
100
AcDbEntity
  8
0
  6
Continuous
100
AcDbLine
 10
-3103.475488
 20
-739.3413659999987
 30
0.0
 11
-3103.475488
 21
-890.3413659999987
 31
0.0
  0
ARC
  5
5591
330
53E2
100
AcDbEntity
  8
0
  6
Continuous
100
AcDbCircle
 10
-3089.875488
 20
-890.3413659999987
 30
0.0
 40
13.6
100
AcDbArc
 50
180.0
 51
0.0
  0
LINE
  5
5592
330
53E2
100
AcDbEntity
  8
0
  6
Continuous
100
AcDbLine
 10
-3404.532663
 20
-901.4857649999985
 30
0.0
 11
-3219.959024
 21
-772.3845189999992
 31
0.0
  0
LINE
  5
5593
330
53E2
100
AcDbEntity
  8
0
  6
Continuous
100
AcDbLine
 10
-3235.549070000001
 20
-750.0957219999991
 30
0.0
 11
-3420.122709000001
 21
-879.1969669999989
 31
0.0
  0
ARC
  5
5594
330
53E2
100
AcDbEntity
  8
0
  6
Continuous
100
AcDbCircle
 10
-3412.327685999999
 20
-890.3413659999987
 30
0.0
 40
13.6
100
AcDbArc
 50
124.9711182000474
 51
304.9711182000474
  0
ARC
  5
5595
330
53E2
100
AcDbEntity
  8
0
  6
Continuous
100
AcDbCircle
 10
-3267.875488
 20
-703.8792459999986
 30
0.0
 40
83.59999999999999
100
AcDbArc
 50
304.9711182000474
 51
0.0
  0
LINE
  5
5596
330
53E2
100
AcDbEntity
  8
0
  6
Continuous
100
AcDbLine
 10
-3184.275487999999
 20
-703.8792459999986
 30
0.0
 11
-3184.275487999999
 21
-530.3413659999987
 31
0.0
  0
ARC
  5
5597
330
53E2
100
AcDbEntity
  8
0
  6
Continuous
100
AcDbCircle
 10
-3127.875488
 20
-530.3413659999987
 30
0.0
 40
83.59999999999999
100
AcDbArc
 50
165.45169320002
 51
180.0
  0
LINE
  5
5598
330
53E2
100
AcDbEntity
  8
0
  6
Continuous
100
AcDbLine
 10
-3211.475488
 20
-530.3413659999987
 30
0.0
 11
-3211.475488
 21
-703.8792459999986
 31
0.0
  0
ARC
  5
5599
330
53E2
100
AcDbEntity
  8
0
  6
Continuous
100
AcDbCircle
 10
-3127.875488
 20
-530.3413659999987
 30
0.0
 40
56.4
100
AcDbArc
 50
158.1399700000009
 51
180.0
  0
ARC
  5
559A
330
53E2
100
AcDbEntity
  8
0
  6
Continuous
100
AcDbCircle
 10
-3267.875488
 20
-703.8792459999986
 30
0.0
 40
56.4
100
AcDbArc
 50
304.9711182000474
 51
0.0
  0
LWPOLYLINE
  5
559B
330
53E2
100
AcDbEntity
  8
0
  6
Continuous
100
AcDbPolyline
 90
        5
 70
     0
 43
0.0
 10
-3109.875488
 20
-739.3413659999987
 10
-3109.875488
 20
-733.3413659999987
 10
-3049.875488
 20
-733.3413659999987
 10
-3049.875488
 20
-739.3413659999987
 10
-3109.875488
 20
-739.3413659999987
  0
LINE
  5
559C
330
53E2
100
AcDbEntity
  8
0
  6
Continuous
100
AcDbLine
 10
-3076.275487999999
 20
1139.658634000001
 30
0.0
 11
-3076.275487999999
 21
998.8725230000017
 31
0.0
  0
LINE
  5
559D
330
53E2
100
AcDbEntity
  8
0
  6
Continuous
100
AcDbLine
 10
-3412.327685999999
 20
1153.258634000001
 30
0.0
 11
-3089.875488
 21
1153.258634000001
 31
0.0
  0
LINE
  5
559E
330
53E2
100
AcDbEntity
  8
0
  6
Continuous
100
AcDbLine
 10
-3103.475488
 20
1126.058634000001
 30
0.0
 11
-3369.156059
 21
1126.058634000001
 31
0.0
  0
LINE
  5
559F
330
53E2
100
AcDbEntity
  8
0
  6
Continuous
100
AcDbLine
 10
-3103.475488
 20
988.6586340000013
 30
0.0
 11
-3103.475488
 21
1139.658634000001
 31
0.0
  0
ARC
  5
55A0
330
53E2
100
AcDbEntity
  8
0
  6
Continuous
100
AcDbCircle
 10
-3089.875488
 20
1139.658634000001
 30
0.0
 40
13.6
100
AcDbArc
 50
0.0
 51
180.0
  0
LINE
  5
55A1
330
53E2
100
AcDbEntity
  8
0
  6
Continuous
100
AcDbLine
 10
-3404.532663
 20
1150.803033
 30
0.0
 11
-3219.959024
 21
1021.701787000002
 31
0.0
  0
LINE
  5
55A2
330
53E2
100
AcDbEntity
  8
0
  6
Continuous
100
AcDbLine
 10
-3235.549070000001
 20
999.4129900000007
 30
0.0
 11
-3420.122709000001
 21
1128.514235000002
 31
0.0
  0
ARC
  5
55A3
330
53E2
100
AcDbEntity
  8
0
  6
Continuous
100
AcDbCircle
 10
-3412.327685999999
 20
1139.658634000001
 30
0.0
 40
13.6
100
AcDbArc
 50
55.02888177002665
 51
235.0288817999526
  0
ARC
  5
55A4
330
53E2
100
AcDbEntity
  8
0
  6
Continuous
100
AcDbCircle
 10
-3267.875488
 20
953.1965140000011
 30
0.0
 40
83.59999999999999
100
AcDbArc
 50
0.0
 51
55.02888177002665
  0
LINE
  5
55A5
330
53E2
100
AcDbEntity
  8
0
  6
Continuous
100
AcDbLine
 10
-3184.275487999999
 20
953.1965140000011
 30
0.0
 11
-3184.275487999999
 21
779.6586340000012
 31
0.0
  0
ARC
  5
55A6
330
53E2
100
AcDbEntity
  8
0
  6
Continuous
100
AcDbCircle
 10
-3127.875488
 20
779.6586340000012
 30
0.0
 40
83.59999999999999
100
AcDbArc
 50
180.0
 51
270.0
  0
LINE
  5
55A7
330
53E2
100
AcDbEntity
  8
0
  6
Continuous
100
AcDbLine
 10
-3211.475488
 20
779.6586340000012
 30
0.0
 11
-3211.475488
 21
953.1965140000011
 31
0.0
  0
ARC
  5
55A8
330
53E2
100
AcDbEntity
  8
0
  6
Continuous
100
AcDbCircle
 10
-3127.875488
 20
779.6586340000012
 30
0.0
 40
56.4
100
AcDbArc
 50
180.0
 51
270.0
  0
LINE
  5
55A9
330
53E2
100
AcDbEntity
  8
0
  6
Continuous
100
AcDbLine
 10
-3127.875488
 20
723.2586340000016
 30
0.0
 11
-3068.875488
 21
723.2586340000016
 31
0.0
  0
ARC
  5
55AA
330
53E2
100
AcDbEntity
  8
0
  6
Continuous
100
AcDbCircle
 10
-3267.875488
 20
953.1965140000011
 30
0.0
 40
56.4
100
AcDbArc
 50
0.0
 51
55.02888177002665
  0
LINE
  5
55AB
330
53E2
100
AcDbEntity
  8
0
  6
Continuous
100
AcDbLine
 10
-3068.875488
 20
696.0586340000008
 30
0.0
 11
-3127.875488
 21
696.0586340000008
 31
0.0
  0
LWPOLYLINE
  5
55AC
330
53E2
100
AcDbEntity
  8
0
  6
Continuous
100
AcDbPolyline
 90
        5
 70
     0
 43
0.0
 10
-3109.875488
 20
988.6586340000013
 10
-3109.875488
 20
982.6586340000012
 10
-3049.875488
 20
982.6586340000012
 10
-3049.875488
 20
988.6586340000013
 10
-3109.875488
 20
988.6586340000013
  0
LINE
  5
55AD
330
53E2
100
AcDbEntity
  8
0
  6
Continuous
100
AcDbLine
 10
-5831.460090999999
 20
208.3664970000009
 30
0.0
 11
-5856.643115999999
 21
226.3031260000007
 31
0.0
  0
LINE
  5
55AE
330
53E2
100
AcDbEntity
  8
0
  6
Continuous
100
AcDbLine
 10
-5556.875394999999
 20
193.0792600000022
 30
0.0
 11
-5557.513548000001
 21
179.5472460000019
 31
0.0
  0
LINE
  5
55AF
330
53E2
100
AcDbEntity
  8
0
  6
Continuous
100
AcDbLine
 10
-5681.736628999999
 20
198.9675670000015
 30
0.0
 11
-5682.374783
 21
185.4355520000026
 31
0.0
  0
LWPOLYLINE
  5
55B0
330
53E2
100
AcDbEntity
  8
0
  6
Continuous
100
AcDbPolyline
 90
        4
 70
     0
 43
0.0
 10
-5838.820286
 20
476.8642260000015
 10
-5839.514426
 20
462.1450250000016
 10
-5836.317979
 20
461.9942840000021
 10
-5835.290893999999
 20
483.7735600000014
  0
LWPOLYLINE
  5
55B1
330
53E2
100
AcDbEntity
  8
0
  6
Continuous
100
AcDbPolyline
 90
        4
 70
     0
 43
0.0
 10
-5822.791268999999
 20
525.9280640000015
 10
-5821.798903999999
 20
519.3740410000009
 10
-5822.269967999999
 20
509.3851420000009
 10
-5823.874717000001
 20
502.9535960000012
  0
LINE
  5
55B2
330
53E2
100
AcDbEntity
  8
0
  6
Continuous
100
AcDbLine
 10
-5825.72635
 20
495.5325820000016
 30
0.0
 11
-5828.981535999999
 21
482.4863810000006
 31
0.0
  0
LWPOLYLINE
  5
55B3
330
53E2
100
AcDbEntity
  8
0
  6
Continuous
100
AcDbPolyline
 90
        3
 70
     0
 43
0.0
 10
-5820.186282000001
 20
581.1666740000019
 10
-5824.133802999998
 20
497.4597020000019
 10
-5833.689088999999
 20
485.8969820000019
  0
ARC
  5
55B4
330
53E2
100
AcDbEntity
  8
0
  6
Continuous
100
AcDbCircle
 10
-5810.563647999999
 20
466.7864090000021
 30
0.0
 40
30.0
100
AcDbArc
 50
140.4301023999865
 51
177.2999999999735
  0
ARC
  5
55B5
330
53E2
100
AcDbEntity
  8
0
  6
Continuous
100
AcDbCircle
 10
-5836.368298
 20
581.929798000001
 30
0.0
 40
16.2
100
AcDbArc
 50
357.2999999999735
 51
87.30000000002553
  0
LINE
  5
55B6
330
53E2
100
AcDbEntity
  8
0
  6
Continuous
100
AcDbLine
 10
-6030.11046
 20
241.6986050000014
 30
0.0
 11
-6058.861776
 21
203.1902280000013
 31
0.0
  0
LWPOLYLINE
  5
55B7
330
53E2
100
AcDbEntity
  8
0
  6
Continuous
100
AcDbPolyline
 90
        3
 70
     0
 43
0.0
 10
-5994.932841
 20
263.7459870000021
 10
-6013.012741
 20
264.5986140000005
 10
-6019.491282000001
 20
255.9215120000008
  0
LINE
  5
55B8
330
53E2
100
AcDbEntity
  8
0
  6
Continuous
100
AcDbLine
 10
-6031.986239
 20
201.9228100000018
 30
0.0
 11
-6182.352461
 21
209.0139010000021
 31
0.0
  0
LINE
  5
55B9
330
53E2
100
AcDbEntity
  8
0
  6
Continuous
100
AcDbLine
 10
-5020.576944
 20
154.2259580000009
 30
0.0
 11
-5455.626780999999
 21
174.7423880000024
 31
0.0
  0
LINE
  5
55BA
330
53E2
100
AcDbEntity
  8
0
  6
Continuous
100
AcDbLine
 10
-5467.613459999999
 20
175.3076650000021
 30
0.0
 11
-5825.715480000001
 21
192.1953280000016
 31
0.0
  0
LWPOLYLINE
  5
55BB
330
53E2
100
AcDbEntity
  8
0
  6
Continuous
100
AcDbPolyline
 90
        4
 70
     0
 43
0.0
 10
-6029.630916
 20
251.8673030000009
 10
-6034.341560999999
 20
151.9783160000006
 10
-6022.354883
 20
151.4130390000009
 10
-6017.644237999999
 20
251.3020260000012
  0
ARC
  5
55BC
330
53E2
100
AcDbEntity
  8
0
  6
Continuous
100
AcDbCircle
 10
-6023.637576999999
 20
251.5846650000021
 30
0.0
 40
6.0
100
AcDbArc
 50
357.2999999999735
 51
177.2999999999735
  0
LWPOLYLINE
  5
55BD
330
53E2
100
AcDbEntity
  8
0
  6
Continuous
100
AcDbPolyline
 90
        3
 70
     0
 43
0.0
 10
-5465.258136999999
 20
225.2521590000015
 10
-5469.968782
 20
125.3631710000008
 10
-5457.982104
 20
124.7978940000012
  0
LINE
  5
55BE
330
53E2
100
AcDbEntity
  8
0
  6
Continuous
100
AcDbLine
 10
-5457.982104
 20
124.7978940000012
 30
0.0
 11
-5453.271458999999
 21
224.6868810000015
 31
0.0
  0
ARC
  5
55BF
330
53E2
100
AcDbEntity
  8
0
  6
Continuous
100
AcDbCircle
 10
-5459.264798
 20
224.9695200000005
 30
0.0
 40
6.0
100
AcDbArc
 50
357.2999999999735
 51
177.2999999999735
  0
LINE
  5
55C0
330
53E2
100
AcDbEntity
  8
0
  6
Continuous
100
AcDbLine
 10
-6090.897187999999
 20
205.2015350000019
 30
0.0
 11
-6090.920742
 21
204.7020900000007
 31
0.0
  0
LWPOLYLINE
  5
55C1
330
53E2
100
AcDbEntity
  8
0
  6
Continuous
100
AcDbPolyline
 90
        3
 70
     0
 43
0.0
 10
-6090.920742
 20
204.7020900000007
 10
-6155.848583
 20
207.7640100000026
 10
-6155.82503
 20
208.2634550000002
  0
ARC
  5
55C2
330
53E2
100
AcDbEntity
  8
0
  6
Continuous
100
AcDbCircle
 10
-6076.226907
 20
223.3305960000016
 30
0.0
 40
16.2
100
AcDbArc
 50
357.2999999999735
 51
87.30000000002553
  0
LINE
  5
55C3
330
53E2
100
AcDbEntity
  8
0
  6
Continuous
100
AcDbLine
 10
-6075.463782
 20
239.5126120000023
 30
0.0
 11
-6172.955434
 21
244.1102010000013
 31
0.0
  0
ARC
  5
55C4
330
53E2
100
AcDbEntity
  8
0
  6
Continuous
100
AcDbCircle
 10
-6173.718558999999
 20
227.9281850000025
 30
0.0
 40
16.2
100
AcDbArc
 50
87.30000000002553
 51
177.2999999999735
  0
LINE
  5
55C5
330
53E2
100
AcDbEntity
  8
0
  6
Continuous
100
AcDbLine
 10
-6189.900575
 20
228.691310000002
 30
0.0
 11
-6190.574197
 21
214.4071850000019
 31
0.0
  0
LINE
  5
55C6
330
53E2
100
AcDbEntity
  8
0
  6
Continuous
100
AcDbLine
 10
-6060.930492
 20
203.7883420000016
 30
0.0
 11
-6182.49539
 21
209.521197
 31
0.0
  0
LINE
  5
55C7
330
53E2
100
AcDbEntity
  8
0
  6
Continuous
100
AcDbLine
 10
-6062.152712999999
 20
203.3454250000013
 30
0.0
 11
-6062.129159999998
 21
203.8448690000005
 31
0.0
  0
LINE
  5
55C8
330
53E2
100
AcDbEntity
  8
0
  6
Continuous
100
AcDbLine
 10
-6060.954045
 20
203.2888970000004
 30
0.0
 11
-6060.044891
 21
222.5674710000021
 31
0.0
  0
LINE
  5
55C9
330
53E2
100
AcDbEntity
  8
0
  6
Continuous
100
AcDbLine
 10
-5047.057268999999
 20
155.9752939999998
 30
0.0
 11
-5047.080822
 21
155.4758490000022
 31
0.0
  0
LINE
  5
55CA
330
53E2
100
AcDbEntity
  8
0
  6
Continuous
100
AcDbLine
 10
-5411.675626999999
 20
172.6697040000017
 30
0.0
 11
-5411.652072999999
 21
173.1691490000012
 31
0.0
  0
LINE
  5
55CB
330
53E2
100
AcDbEntity
  8
0
  6
Continuous
100
AcDbLine
 10
-5410.453405000001
 20
173.112621000002
 30
0.0
 11
-5410.476959
 21
172.6131760000007
 31
0.0
  0
LINE
  5
55CC
330
53E2
100
AcDbEntity
  8
0
  6
Continuous
100
AcDbLine
 10
-5682.115697
 20
190.9294460000019
 30
0.0
 11
-5587.221158999999
 21
186.4543330000015
 31
0.0
  0
LWPOLYLINE
  5
55CD
330
53E2
100
AcDbEntity
  8
0
  6
Continuous
100
AcDbPolyline
 90
        4
 70
     0
 43
0.0
 10
-5712.223713
 20
189.3459700000003
 10
-5717.717607
 20
189.6050560000003
 10
-5717.576288
 20
192.6017250000004
 10
-5712.082392999999
 20
192.3426400000007
  0
LWPOLYLINE
  5
55CE
330
53E2
100
AcDbEntity
  8
0
  6
Continuous
100
AcDbPolyline
 90
        3
 70
     0
 43
0.0
 10
-5592.974139
 20
181.2195250000004
 10
-5592.856373
 20
183.7167490000011
 10
-5587.362477999999
 20
183.4576640000014
  0
LINE
  5
55CF
330
53E2
100
AcDbEntity
  8
0
  6
Continuous
100
AcDbLine
 10
-5587.362477999999
 20
183.4576640000014
 30
0.0
 11
-5682.257017
 21
187.9327770000018
 31
0.0
  0
LWPOLYLINE
  5
55D0
330
53E2
100
AcDbEntity
  8
0
  6
Continuous
100
AcDbPolyline
 90
        3
 70
     0
 43
0.0
 10
-5587.341536
 20
194.516007000002
 10
-5587.720604000001
 20
186.4778870000009
 10
-5682.115697
 20
190.9294460000019
  0
LINE
  5
55D1
330
53E2
100
AcDbEntity
  8
0
  6
Continuous
100
AcDbLine
 10
-5843.918404
 20
396.3559790000017
 30
0.0
 11
-5822.174171
 21
405.2739390000006
 31
0.0
  0
LINE
  5
55D2
330
53E2
100
AcDbEntity
  8
0
  6
Continuous
100
AcDbLine
 10
-5857.304566999999
 20
212.2770990000026
 30
0.0
 11
-5856.281011
 21
233.9815490000019
 31
0.0
  0
LINE
  5
55D3
330
53E2
100
AcDbEntity
  8
0
  6
Continuous
100
AcDbLine
 10
-5956.579823999998
 20
230.0018520000012
 30
0.0
 11
-5957.193553999999
 21
216.987744
 31
0.0
  0
ARC
  5
55D4
330
53E2
100
AcDbEntity
  8
0
  6
Continuous
100
AcDbCircle
 10
-6037.859899999999
 20
459.485399000001
 30
0.0
 40
75.75
100
AcDbArc
 50
32.75992838998246
 51
321.8400716000048
  0
LWPOLYLINE
  5
55D5
330
53E2
100
AcDbEntity
  8
0
  6
Continuous
100
AcDbPolyline
 90
        4
 70
     0
 43
0.0
 10
-5840.530343999999
 20
468.1996030000009
 10
-5851.364828
 20
238.4549310000021
 10
-5856.59481
 20
233.696014000001
 10
-5933.54236
 20
237.3247690000007
  0
LWPOLYLINE
  5
55D6
330
53E2
100
AcDbEntity
  8
0
  6
Continuous
100
AcDbPolyline
 90
        3
 70
     0
 43
0.0
 10
-5948.596203
 20
234.0775910000011
 10
-5977.403724
 20
219.3709909999998
 10
-5987.392621999999
 20
219.842055000001
  0
ARC
  5
55D7
330
53E2
100
AcDbEntity
  8
0
  6
Continuous
100
AcDbCircle
 10
-5934.955554
 20
207.3580720000009
 30
0.0
 40
30.0
100
AcDbArc
 50
87.30000000002553
 51
117.0448813000039
  0
ARC
  5
55D8
330
53E2
100
AcDbEntity
  8
0
  6
Continuous
100
AcDbCircle
 10
-5953.837747
 20
587.4695170000014
 30
0.0
 40
16.2
100
AcDbArc
 50
87.30000000002553
 51
177.2999999999735
  0
LINE
  5
55D9
330
53E2
100
AcDbEntity
  8
0
  6
Continuous
100
AcDbLine
 10
-5953.074623
 20
603.6515330000002
 30
0.0
 11
-5835.605174000001
 21
598.1118140000017
 31
0.0
  0
LINE
  5
55DA
330
53E2
100
AcDbEntity
  8
0
  6
Continuous
100
AcDbLine
 10
-5987.392621999999
 20
219.842055000001
 30
0.0
 11
-5970.019763
 21
588.2326410000005
 31
0.0
  0
LINE
  5
55DB
330
53E2
100
AcDbEntity
  8
0
  6
Continuous
100
AcDbLine
 10
-5831.725987
 20
462.9641070000015
 30
0.0
 11
-5834.095008000001
 21
461.9925010000006
 31
0.0
  0
LWPOLYLINE
  5
55DC
330
53E2
100
AcDbEntity
  8
0
  6
Continuous
100
AcDbPolyline
 90
        3
 70
     0
 43
0.0
 10
-5833.827847999999
 20
463.0632280000009
 10
-5835.848612
 20
454.9643700000014
 10
-5841.142727999999
 20
455.2140340000005
  0
LWPOLYLINE
  5
55DD
330
53E2
100
AcDbEntity
  8
0
  6
Continuous
100
AcDbPolyline
 90
        4
 70
     0
 43
0.0
 10
-5835.028117
 20
480.8544550000005
 10
-5835.427667
 20
480.8732970000001
 10
-5836.171947999999
 20
465.0908490000019
 10
-5835.772397999999
 20
465.0720070000025
  0
LINE
  5
55DE
330
53E2
100
AcDbEntity
  8
0
  6
Continuous
100
AcDbLine
 10
-5828.576404999999
 20
477.5543510000006
 30
0.0
 11
-5835.169084
 21
477.8652530000017
 31
0.0
  0
LINE
  5
55DF
330
53E2
100
AcDbEntity
  8
0
  6
Continuous
100
AcDbLine
 10
-5829.038752
 20
467.7503050000013
 30
0.0
 11
-5835.631431
 21
468.061208000001
 31
0.0
  0
LWPOLYLINE
  5
55E0
330
53E2
100
AcDbEntity
  8
0
  6
Continuous
100
AcDbPolyline
 90
        5
 70
     0
 43
0.0
 10
-5828.345231
 20
482.4563730000009
 10
-5829.269925999999
 20
462.8482820000008
 10
-5835.862605
 20
463.1591850000022
 10
-5834.937910999999
 20
482.7672760000023
 10
-5828.345231
 20
482.4563730000009
  0
LINE
  5
55E1
330
53E2
100
AcDbEntity
  8
0
  6
Continuous
100
AcDbLine
 10
-6066.685106999999
 20
325.5288490000021
 30
0.0
 11
-6053.214413
 21
292.6839040000014
 31
0.0
  0
LWPOLYLINE
  5
55E2
330
53E2
100
AcDbEntity
  8
0
  6
Continuous
100
AcDbPolyline
 90
        4
 70
     0
 43
0.0
 10
-6077.325018999999
 20
321.1651030000012
 10
-6076.072817999999
 20
318.1119220000001
 10
-6073.759794
 20
319.0605630000027
 10
-6075.011994999999
 20
322.1137430000017
  0
LWPOLYLINE
  5
55E3
330
53E2
100
AcDbEntity
  8
0
  6
Continuous
100
AcDbPolyline
 90
        4
 70
     0
 43
0.0
 10
-6103.215839
 20
421.1883540000017
 10
-6064.372083000001
 20
326.4774890000008
 10
-6080.100648
 20
320.026734000001
 10
-6122.979194
 20
424.5754329999999
  0
ARC
  5
55E4
330
53E2
100
AcDbEntity
  8
0
  6
Continuous
100
AcDbCircle
 10
-6037.859899999999
 20
459.485399000001
 30
0.0
 40
92.0
100
AcDbArc
 50
45.18258012998074
 51
202.2999999999928
  0
LINE
  5
55E5
330
53E2
100
AcDbEntity
  8
0
  6
Continuous
100
AcDbLine
 10
-5823.612266999998
 20
508.5188400000006
 30
0.0
 11
-5822.269967999999
 21
509.3851420000009
 31
0.0
  0
LWPOLYLINE
  5
55E6
330
53E2
100
AcDbEntity
  8
0
  6
Continuous
100
AcDbPolyline
 90
        3
 70
     0
 43
0.0
 10
-5822.269967999999
 20
509.3851420000009
 10
-5821.798903999999
 20
519.3740410000009
 10
-5823.053719
 20
520.3628200000021
  0
LINE
  5
55E7
330
53E2
100
AcDbEntity
  8
0
  6
Continuous
100
AcDbLine
 10
-6070.684535999999
 20
304.9739330000011
 30
0.0
 11
-6063.282858
 21
308.0095820000024
 31
0.0
  0
LWPOLYLINE
  5
55E8
330
53E2
100
AcDbEntity
  8
0
  6
Continuous
100
AcDbPolyline
 90
        4
 70
     0
 43
0.0
 10
-6072.236364999999
 20
323.2521120000019
 10
-6070.149357
 20
318.1634580000009
 10
-6064.598098000001
 20
320.440195000001
 10
-6066.685106999999
 20
325.5288490000021
  0
LINE
  5
55E9
330
53E2
100
AcDbEntity
  8
0
  6
Continuous
100
AcDbLine
 10
-6067.836332000001
 20
319.1120990000018
 30
0.0
 11
-6040.515489
 21
252.4969990000027
 31
0.0
  0
LINE
  5
55EA
330
53E2
100
AcDbEntity
  8
0
  6
Continuous
100
AcDbLine
 10
-6047.917167
 20
249.4613500000014
 30
0.0
 11
-6077.325018999999
 21
321.1651030000012
 31
0.0
  0
ARC
  5
55EB
330
53E2
100
AcDbEntity
  8
0
  6
Continuous
100
AcDbCircle
 10
-6044.216328
 20
250.9791740000019
 30
0.0
 40
4.0
100
AcDbArc
 50
202.2999999999928
 51
22.29999999999276
  0
LWPOLYLINE
  5
55EC
330
53E2
100
AcDbEntity
  8
0
  6
Continuous
100
AcDbPolyline
 90
        4
 70
     0
 43
0.0
 10
-6075.011994999999
 20
322.1137430000017
 10
-6072.924986
 20
317.025090000001
 10
-6070.149357
 20
318.1634580000009
 10
-6072.236364999999
 20
323.2521120000019
  0
LINE
  5
55ED
330
53E2
100
AcDbEntity
  8
0
  6
Continuous
100
AcDbLine
 10
-5819.211527
 20
468.0966610000013
 30
0.0
 11
-5829.215915999998
 21
463.9935630000017
 31
0.0
  0
ARC
  5
55EE
330
53E2
100
AcDbEntity
  8
0
  6
Continuous
100
AcDbCircle
 10
-5027.392538
 20
173.8688230000007
 30
0.0
 40
16.2
100
AcDbArc
 50
357.2999999999735
 51
87.30000000002553
  0
ARC
  5
55EF
330
53E2
100
AcDbEntity
  8
0
  6
Continuous
100
AcDbCircle
 10
-5394.584455999999
 20
191.1851540000007
 30
0.0
 40
16.2
100
AcDbArc
 50
87.30000000002553
 51
177.2999999999735
  0
LINE
  5
55F0
330
53E2
100
AcDbEntity
  8
0
  6
Continuous
100
AcDbLine
 10
-5393.821331999999
 20
207.3671700000013
 30
0.0
 11
-5026.629413999999
 21
190.0508390000013
 31
0.0
  0
LINE
  5
55F1
330
53E2
100
AcDbEntity
  8
0
  6
Continuous
100
AcDbLine
 10
-5011.210521999999
 20
173.1056980000012
 30
0.0
 11
-5011.884143999999
 21
158.8215730000011
 31
0.0
  0
LWPOLYLINE
  5
55F2
330
53E2
100
AcDbEntity
  8
0
  6
Continuous
100
AcDbPolyline
 90
        3
 70
     0
 43
0.0
 10
-5020.386908999999
 20
154.7175520000019
 10
-5411.652072999999
 20
173.1691490000012
 10
-5410.766471999999
 20
191.9482780000016
  0
LINE
  5
55F3
330
53E2
100
AcDbEntity
  8
0
  6
Continuous
100
AcDbLine
 10
-5840.671664
 20
465.2029330000004
 30
0.0
 11
-5839.373107
 21
465.1416950000021
 31
0.0
  0
LWPOLYLINE
  5
55F4
330
53E2
100
AcDbEntity
  8
0
  6
Continuous
100
AcDbPolyline
 90
        3
 70
     0
 43
0.0
 10
-5840.907196
 20
460.2084840000006
 10
-5839.608639
 20
460.1472450000019
 10
-5838.820286
 20
476.8642260000015
  0
LWPOLYLINE
  5
55F5
330
53E2
100
AcDbEntity
  8
0
  6
Continuous
100
AcDbPolyline
 90
        5
 70
     0
 43
0.0
 10
-5831.570109999999
 20
206.0335340000019
 10
-5817.440391999999
 20
505.6534950000004
 10
-5507.784529999999
 20
491.0504960000016
 10
-5521.914248999999
 20
191.4305350000013
 10
-5831.570109999999
 20
206.0335340000019
  0
ARC
  5
55F6
330
53E2
100
AcDbEntity
  8
0
  6
Continuous
100
AcDbCircle
 10
-5501.429101
 20
328.6178470000014
 30
0.0
 40
16.0
100
AcDbArc
 50
357.2999999999735
 51
87.30000000002553
  0
ARC
  5
55F7
330
53E2
100
AcDbEntity
  8
0
  6
Continuous
100
AcDbCircle
 10
-5505.009190999999
 20
252.7022170000019
 30
0.0
 40
16.0
100
AcDbArc
 50
267.3000000000255
 51
357.2999999999735
  0
ARC
  5
55F8
330
53E2
100
AcDbEntity
  8
0
  6
Continuous
100
AcDbCircle
 10
-5501.429101
 20
328.6178470000014
 30
0.0
 40
8.0
100
AcDbArc
 50
357.2999999999735
 51
87.30000000002553
  0
ARC
  5
55F9
330
53E2
100
AcDbEntity
  8
0
  6
Continuous
100
AcDbCircle
 10
-5505.009190999999
 20
252.7022170000019
 30
0.0
 40
8.0
100
AcDbArc
 50
267.3000000000255
 51
357.2999999999735
  0
LINE
  5
55FA
330
53E2
100
AcDbEntity
  8
0
  6
Continuous
100
AcDbLine
 10
-5489.026952999999
 20
251.9485130000012
 30
0.0
 11
-5485.446862999999
 21
327.8641440000011
 31
0.0
  0
LINE
  5
55FB
330
53E2
100
AcDbEntity
  8
0
  6
Continuous
100
AcDbLine
 10
-5513.39603
 20
337.1910840000019
 30
0.0
 11
-5501.052248999998
 21
336.6089659999998
 31
0.0
  0
LINE
  5
55FC
330
53E2
100
AcDbEntity
  8
0
  6
Continuous
100
AcDbLine
 10
-5517.729823999999
 20
245.293216
 30
0.0
 11
-5505.386042
 21
244.7110980000016
 31
0.0
  0
LINE
  5
55FD
330
53E2
100
AcDbEntity
  8
0
  6
Continuous
100
AcDbLine
 10
-5493.437981999999
 20
328.2409960000023
 30
0.0
 11
-5497.018072000001
 21
252.3253650000006
 31
0.0
  0
LINE
  5
55FE
330
53E2
100
AcDbEntity
  8
0
  6
Continuous
100
AcDbLine
 10
-5518.106675000002
 20
237.3020970000016
 30
0.0
 11
-5505.762894
 21
236.7199790000013
 31
0.0
  0
LWPOLYLINE
  5
55FF
330
53E2
100
AcDbEntity
  8
0
  6
Continuous
100
AcDbPolyline
 90
        8
 70
     0
 43
0.0
 10
-5517.918250000001
 20
241.2976560000006
 10
-5518.106675000002
 20
237.3020970000016
 10
-5518.896209000001
 20
234.1994040000009
 10
-5519.895098999999
 20
234.2465110000012
 10
-5519.222754000001
 20
248.5035460000017
 10
-5518.223863999999
 20
248.4564400000017
 10
-5517.729823999999
 20
245.293216
 10
-5517.918250000001
 20
241.2976560000006
  0
LWPOLYLINE
  5
5600
330
53E2
100
AcDbEntity
  8
0
  6
Continuous
100
AcDbPolyline
 90
        8
 70
     0
 43
0.0
 10
-5513.207603999999
 20
341.1866440000013
 10
-5513.39603
 20
337.1910840000019
 10
-5514.185563999999
 20
334.0883920000015
 10
-5515.184454
 20
334.1354980000015
 10
-5514.512108999999
 20
348.3925340000005
 10
-5513.513218999999
 20
348.345427000002
 10
-5513.019179000001
 20
345.1822030000003
 10
-5513.207603999999
 20
341.1866440000013
  0
LINE
  5
5601
330
53E2
100
AcDbEntity
  8
0
  6
Continuous
100
AcDbLine
 10
-5513.019179000001
 20
345.1822030000003
 30
0.0
 11
-5500.675396999999
 21
344.6000850000018
 31
0.0
  0
LINE
  5
5602
330
53E2
100
AcDbEntity
  8
0
  6
Continuous
100
AcDbLine
 10
-6102.411286999998
 20
77.80249500000173
 30
0.0
 11
-5113.010865999999
 21
31.14355500000056
 31
0.0
  0
LINE
  5
5603
330
53E2
100
AcDbEntity
  8
0
  6
Continuous
100
AcDbLine
 10
-6103.692582
 20
50.63269000000218
 30
0.0
 11
-6103.197964999999
 21
61.1210340000016
 31
0.0
  0
LINE
  5
5604
330
53E2
100
AcDbEntity
  8
0
  6
Continuous
100
AcDbLine
 10
-6101.699863
 20
82.27394600000115
 30
0.0
 11
-6102.199307999999
 21
82.29749900000205
 31
0.0
  0
LWPOLYLINE
  5
5605
330
53E2
100
AcDbEntity
  8
0
  6
Continuous
100
AcDbPolyline
 90
        3
 70
     0
 43
0.0
 10
-5113.298099
 20
14.43854100000135
 10
-5113.792716
 20
3.950197000000116
 10
-6103.692582
 20
50.63269000000218
  0
LINE
  5
5606
330
53E2
100
AcDbEntity
  8
0
  6
Continuous
100
AcDbLine
 10
-5113.010865999999
 20
31.14355500000056
 30
0.0
 11
-5112.511420999999
 21
31.12000200000148
 31
0.0
  0
LINE
  5
5607
330
53E2
100
AcDbEntity
  8
0
  6
Continuous
100
AcDbLine
 10
-5112.299442
 20
35.61500600000182
 30
0.0
 11
-5112.798886999999
 21
35.63856000000124
 31
0.0
  0
LINE
  5
5608
330
53E2
100
AcDbEntity
  8
0
  6
Continuous
100
AcDbLine
 10
-5135.982021
 20
159.6683230000017
 30
0.0
 11
-5135.958467999999
 21
160.1677680000011
 31
0.0
  0
LINE
  5
5609
330
53E2
100
AcDbEntity
  8
0
  6
Continuous
100
AcDbLine
 10
-5712.341479
 20
186.8487450000011
 30
0.0
 11
-5711.703325000001
 21
200.3807600000018
 31
0.0
  0
LINE
  5
560A
330
53E2
100
AcDbEntity
  8
0
  6
Continuous
100
AcDbLine
 10
-5587.480245
 20
180.9604390000004
 30
0.0
 11
-5586.842091000001
 21
194.4924540000011
 31
0.0
  0
LINE
  5
560B
330
53E2
100
AcDbEntity
  8
0
  6
Continuous
100
AcDbLine
 10
-6168.962104000001
 20
103.7662909999999
 30
0.0
 11
-6106.831153999999
 21
100.8362690000012
 31
0.0
  0
LWPOLYLINE
  5
560C
330
53E2
100
AcDbEntity
  8
0
  6
Continuous
100
AcDbPolyline
 90
        7
 70
     0
 43
0.0
 10
-6183.781745999999
 20
214.0868610000016
 10
-6166.630335
 20
153.2113390000013
 10
-6168.985658
 20
103.2668460000022
 10
-6174.215638999999
 20
98.50792900000124
 10
-6219.165684
 20
100.627719
 10
-6213.748441999999
 20
215.5000540000019
 10
-6183.781745999999
 20
214.0868610000016
  0
LINE
  5
560D
330
53E2
100
AcDbEntity
  8
0
  6
Continuous
100
AcDbLine
 10
-5011.969744
 20
-343.9825699999992
 30
0.0
 11
-4998.033356999998
 21
-48.46099799999866
 31
0.0
  0
LWPOLYLINE
  5
560E
330
53E2
100
AcDbEntity
  8
0
  6
Continuous
100
AcDbPolyline
 90
        3
 70
     0
 43
0.0
 10
-5047.080822
 20
155.4758490000022
 10
-5112.008663999999
 20
158.5377690000005
 10
-5111.985111
 20
159.0372140000017
  0
LWPOLYLINE
  5
560F
330
53E2
100
AcDbEntity
  8
0
  6
Continuous
100
AcDbPolyline
 90
        5
 70
     0
 43
0.0
 10
-5051.791466999999
 20
55.58686200000193
 10
-5116.719309
 20
58.64878100000169
 10
-5116.931287999999
 20
54.15377700000135
 10
-5052.003446
 20
51.09185700000125
 10
-5051.791466999999
 20
55.58686200000193
  0
LINE
  5
5610
330
53E2
100
AcDbEntity
  8
0
  6
Continuous
100
AcDbLine
 10
-6160.559228
 20
107.8750220000001
 30
0.0
 11
-6160.771208
 21
103.3800180000016
 31
0.0
  0
LWPOLYLINE
  5
5611
330
53E2
100
AcDbEntity
  8
0
  6
Continuous
100
AcDbPolyline
 90
        3
 70
     0
 43
0.0
 10
-6106.831153999999
 20
100.8362690000012
 10
-6095.843365999999
 20
100.3180980000015
 10
-6095.631387
 20
104.8131030000004
  0
LINE
  5
5612
330
53E2
100
AcDbEntity
  8
0
  6
Continuous
100
AcDbLine
 10
-5990.532309
 20
199.9678920000006
 30
0.0
 11
-6019.99956
 21
201.3575320000018
 31
0.0
  0
LINE
  5
5613
330
53E2
100
AcDbEntity
  8
0
  6
Continuous
100
AcDbLine
 10
-5043.812549
 20
50.70558400000118
 30
0.0
 11
-5105.943499999999
 21
53.63560600000164
 31
0.0
  0
LINE
  5
5614
330
53E2
100
AcDbEntity
  8
0
  6
Continuous
100
AcDbLine
 10
-6168.750125
 20
108.2612950000021
 30
0.0
 11
-5043.600570000001
 21
55.20058900000186
 31
0.0
  0
LWPOLYLINE
  5
5615
330
53E2
100
AcDbEntity
  8
0
  6
Continuous
100
AcDbPolyline
 90
        7
 70
     0
 43
0.0
 10
-5018.676594999999
 20
159.1418970000013
 10
-5041.48078
 20
100.1506330000011
 10
-5043.836103
 20
50.20614000000205
 10
-5039.077185
 20
44.9761580000013
 10
-4994.127140999999
 20
42.85636800000247
 10
-4988.709898999999
 20
157.7287030000007
 10
-5018.676594999999
 20
159.1418970000013
  0
ARC
  5
5616
330
53E2
100
AcDbEntity
  8
0
  6
Continuous
100
AcDbCircle
 10
-6107.325772
 20
90.34792600000219
 30
0.0
 40
10.5
100
AcDbArc
 50
357.2999999999735
 51
87.30000000002553
  0
ARC
  5
5617
330
53E2
100
AcDbEntity
  8
0
  6
Continuous
100
AcDbCircle
 10
-6107.325772
 20
90.34792600000219
 30
0.0
 40
6.0
100
AcDbArc
 50
357.2999999999735
 51
87.30000000002553
  0
LINE
  5
5618
330
53E2
100
AcDbEntity
  8
0
  6
Continuous
100
AcDbLine
 10
-6107.043132999999
 20
96.34126500000093
 30
0.0
 11
-6173.169642999999
 21
99.45971200000167
 31
0.0
  0
ARC
  5
5619
330
53E2
100
AcDbEntity
  8
0
  6
Continuous
100
AcDbCircle
 10
-5106.438116999999
 20
43.14726200000222
 30
0.0
 40
10.5
100
AcDbArc
 50
87.30000000002553
 51
177.2999999999735
  0
ARC
  5
561A
330
53E2
100
AcDbEntity
  8
0
  6
Continuous
100
AcDbCircle
 10
-5106.438116999999
 20
43.14726200000222
 30
0.0
 40
6.0
100
AcDbArc
 50
87.30000000002553
 51
177.2999999999735
  0
LINE
  5
561B
330
53E2
100
AcDbEntity
  8
0
  6
Continuous
100
AcDbLine
 10
-5106.155478999999
 20
49.14060100000097
 30
0.0
 11
-5040.028969000001
 21
46.02215400000204
 31
0.0
  0
LWPOLYLINE
  5
561C
330
53E2
100
AcDbEntity
  8
0
  6
Continuous
100
AcDbPolyline
 90
        7
 70
     0
 43
0.0
 10
-5808.705971
 20
181.3820660000001
 10
-5876.744005
 20
224.6351130000021
 10
-5936.677397
 20
227.4615000000013
 10
-6008.483945999998
 20
190.8033560000003
 10
-6012.252461999999
 20
110.8921659999996
 10
-5812.474486999999
 20
101.4708760000012
 10
-5808.705971
 20
181.3820660000001
  0
LWPOLYLINE
  5
561D
330
53E2
100
AcDbEntity
  8
0
  6
Continuous
100
AcDbPolyline
 90
        3
 70
     0
 43
0.0
 10
-5722.829823
 20
187.3433630000018
 10
-5722.712056
 20
189.8405880000027
 10
-5712.223713
 20
189.3459700000003
  0
LINE
  5
561E
330
53E2
100
AcDbEntity
  8
0
  6
Continuous
100
AcDbLine
 10
-5807.553232
 20
191.338818000002
 30
0.0
 11
-5827.944561
 21
205.8625580000007
 31
0.0
  0
LINE
  5
561F
330
53E2
100
AcDbEntity
  8
0
  6
Continuous
100
AcDbLine
 10
-5245.836353999999
 20
165.3494780000019
 30
0.0
 11
-5245.859906999999
 21
164.8500330000006
 31
0.0
  0
LWPOLYLINE
  5
5620
330
53E2
100
AcDbEntity
  8
0
  6
Continuous
100
AcDbPolyline
 90
        4
 70
     0
 43
0.0
 10
-6053.214413
 20
292.6839040000014
 10
-6039.336267999999
 20
298.3757460000015
 10
-6073.487321999999
 20
381.6446210000013
 10
-6085.052443999999
 20
376.9014189999998
  0
LWPOLYLINE
  5
5621
330
53E2
100
AcDbEntity
  8
0
  6
Continuous
100
AcDbPolyline
 90
        3
 70
     0
 43
0.0
 10
-6143.648176999999
 20
52.51694800000041
 10
-6148.143182
 20
52.72892700000193
 10
-6147.931203
 20
57.22393200000079
  0
LWPOLYLINE
  5
5622
330
53E2
100
AcDbEntity
  8
0
  6
Continuous
100
AcDbPolyline
 90
        5
 70
     0
 43
0.0
 10
-6128.165383999999
 20
51.786798000001
 10
-5089.319914
 20
2.796089000001302
 10
-5089.428259
 20
0.4986430000008113
 10
-6128.273728999999
 20
49.48935100000198
 10
-6128.165383999999
 20
51.786798000001
  0
ARC
  5
5623
330
53E2
100
AcDbEntity
  8
0
  6
Continuous
100
AcDbCircle
 10
-6113.686308000001
 20
61.61565200000223
 30
0.0
 40
10.5
100
AcDbArc
 50
267.3000000000255
 51
357.2999999999735
  0
LWPOLYLINE
  5
5624
330
53E2
100
AcDbEntity
  8
0
  6
Continuous
100
AcDbPolyline
 90
        4
 70
     0
 43
0.0
 10
-6114.180925999999
 20
51.12730800000099
 10
-6143.648176999999
 20
52.51694800000041
 10
-6143.436197999999
 20
57.01195300000108
 10
-6113.968947
 20
55.62231200000133
  0
ARC
  5
5625
330
53E2
100
AcDbEntity
  8
0
  6
Continuous
100
AcDbCircle
 10
-6113.686308000001
 20
61.61565200000223
 30
0.0
 40
6.0
100
AcDbArc
 50
267.3000000000255
 51
357.2999999999735
  0
LWPOLYLINE
  5
5626
330
53E2
100
AcDbEntity
  8
0
  6
Continuous
100
AcDbPolyline
 90
        4
 70
     0
 43
0.0
 10
-6107.692969
 20
61.3330130000013
 10
-6106.444647999999
 20
87.80359500000121
 10
-6101.949643999998
 20
87.59161500000118
 10
-6103.197964999999
 20
61.1210340000016
  0
LWPOLYLINE
  5
5627
330
53E2
100
AcDbEntity
  8
0
  6
Continuous
100
AcDbPolyline
 90
        5
 70
     0
 43
0.0
 10
-6156.638806
 20
84.86480100000154
 10
-6106.694312
 20
82.50947800000176
 10
-6107.692969
 20
61.3330130000013
 10
-6113.968947
 20
55.62231200000133
 10
-6157.920102
 20
57.69499600000199
  0
LWPOLYLINE
  5
5628
330
53E2
100
AcDbEntity
  8
0
  6
Continuous
100
AcDbPolyline
 90
        5
 70
     0
 43
0.0
 10
-5059.141238999998
 20
5.877900000001318
 10
-5103.092393999999
 20
7.950584000001981
 10
-5108.803094000001
 20
14.22656200000165
 10
-5107.804437000001
 20
35.40302700000211
 10
-5057.859944
 20
33.04770500000086
  0
ARC
  5
5629
330
53E2
100
AcDbEntity
  8
0
  6
Continuous
100
AcDbCircle
 10
-5102.809755
 20
13.94392300000072
 30
0.0
 40
10.5
100
AcDbArc
 50
177.2999999999735
 51
267.3000000000255
  0
LWPOLYLINE
  5
562A
330
53E2
100
AcDbEntity
  8
0
  6
Continuous
100
AcDbPolyline
 90
        4
 70
     0
 43
0.0
 10
-5103.304373000001
 20
3.455579999999827
 10
-5073.837120999999
 20
2.065939000000071
 10
-5073.625141999999
 20
6.560944000000745
 10
-5103.092393999999
 20
7.950584000001981
  0
ARC
  5
562B
330
53E2
100
AcDbEntity
  8
0
  6
Continuous
100
AcDbCircle
 10
-5102.809755
 20
13.94392300000072
 30
0.0
 40
6.0
100
AcDbArc
 50
177.2999999999735
 51
267.3000000000255
  0
LWPOLYLINE
  5
562C
330
53E2
100
AcDbEntity
  8
0
  6
Continuous
100
AcDbPolyline
 90
        4
 70
     0
 43
0.0
 10
-5108.803094000001
 20
14.22656200000165
 10
-5107.554773
 20
40.69714399999975
 10
-5112.049777999999
 20
40.90912300000127
 10
-5113.298099
 20
14.43854100000135
  0
ARC
  5
562D
330
53E2
100
AcDbEntity
  8
0
  6
Continuous
100
AcDbCircle
 10
-6159.634775999999
 20
21.33540499999981
 30
0.0
 40
63.6
100
AcDbArc
 50
87.30000000002553
 51
177.2999999999735
  0
LINE
  5
562E
330
53E2
100
AcDbEntity
  8
0
  6
Continuous
100
AcDbLine
 10
-6223.164171999999
 20
24.33137500000157
 30
0.0
 11
-6251.428043
 21
-575.0025499999992
 31
0.0
  0
ARC
  5
562F
330
53E2
100
AcDbEntity
  8
0
  6
Continuous
100
AcDbCircle
 10
-5060.855914
 20
-30.48169099999905
 30
0.0
 40
63.6
100
AcDbArc
 50
357.2999999999735
 51
87.30000000002553
  0
ARC
  5
5630
330
53E2
100
AcDbEntity
  8
0
  6
Continuous
100
AcDbCircle
 10
-6159.634775999999
 20
21.33540499999981
 30
0.0
 40
36.4
100
AcDbArc
 50
87.30000000002553
 51
177.2999999999735
  0
LINE
  5
5631
330
53E2
100
AcDbEntity
  8
0
  6
Continuous
100
AcDbLine
 10
-6224.258238
 20
-576.2838459999984
 30
0.0
 11
-6195.994368
 21
23.05007900000237
 31
0.0
  0
ARC
  5
5632
330
53E2
100
AcDbEntity
  8
0
  6
Continuous
100
AcDbCircle
 10
-5060.855914
 20
-30.48169099999905
 30
0.0
 40
36.4
100
AcDbArc
 50
357.2999999999735
 51
87.30000000002553
  0
LINE
  5
5633
330
53E2
100
AcDbEntity
  8
0
  6
Continuous
100
AcDbLine
 10
-6293.131101
 20
-492.1119209999988
 30
0.0
 11
-6284.740193
 21
-314.093593999999
 31
0.0
  0
LINE
  5
5634
330
53E2
100
AcDbEntity
  8
0
  6
Continuous
100
AcDbLine
 10
-6300.466058
 20
-647.7275769999987
 30
0.0
 11
-6294.152797999999
 21
-513.787855999999
 31
0.0
  0
ARC
  5
5635
330
53E2
100
AcDbEntity
  8
0
  6
Continuous
100
AcDbCircle
 10
-6293.641949999999
 20
-502.9498889999995
 30
0.0
 40
10.85
100
AcDbArc
 50
87.30000000002553
 51
267.3000000000255
  0
LINE
  5
5636
330
53E2
100
AcDbEntity
  8
0
  6
Continuous
100
AcDbLine
 10
-6293.130845
 20
-492.1119329999992
 30
0.0
 11
-6247.620234
 21
-494.258158999999
 31
0.0
  0
LINE
  5
5637
330
53E2
100
AcDbEntity
  8
0
  6
Continuous
100
AcDbLine
 10
-6248.642443999999
 20
-515.9340699999993
 30
0.0
 11
-6294.153055000001
 21
-513.7878439999986
 31
0.0
  0
LINE
  5
5638
330
53E2
100
AcDbEntity
  8
0
  6
Continuous
100
AcDbLine
 10
-4976.271711999999
 20
-554.2134339999993
 30
0.0
 11
-4967.872376999999
 21
-376.195502999999
 31
0.0
  0
LINE
  5
5639
330
53E2
100
AcDbEntity
  8
0
  6
Continuous
100
AcDbLine
 10
-4983.614434999999
 20
-709.8371989999987
 30
0.0
 11
-4977.294435
 21
-575.8893199999993
 31
0.0
  0
ARC
  5
563A
330
53E2
100
AcDbEntity
  8
0
  6
Continuous
100
AcDbCircle
 10
-4976.783074
 20
-565.0513769999988
 30
0.0
 40
10.85
100
AcDbArc
 50
267.2986439000228
 51
87.29864390002278
  0
LINE
  5
563B
330
53E2
100
AcDbEntity
  8
0
  6
Continuous
100
AcDbLine
 10
-5021.782725999999
 20
-552.0671889999994
 30
0.0
 11
-4976.271711999999
 21
-554.2134339999993
 31
0.0
  0
LINE
  5
563C
330
53E2
100
AcDbEntity
  8
0
  6
Continuous
100
AcDbLine
 10
-4977.294435
 20
-575.8893199999993
 30
0.0
 11
-5022.804935999999
 21
-573.7430989999984
 31
0.0
  0
LINE
  5
563D
330
53E2
100
AcDbEntity
  8
0
  6
Continuous
100
AcDbLine
 10
-6218.520353
 20
-454.6091699999997
 30
0.0
 11
-6223.131936
 21
-552.3975549999986
 31
0.0
  0
LINE
  5
563E
330
53E2
100
AcDbEntity
  8
0
  6
Continuous
100
AcDbLine
 10
-6223.131936
 20
-552.3975549999986
 30
0.0
 11
-6224.258384999999
 21
-576.2838389999988
 31
0.0
  0
LINE
  5
563F
330
53E2
100
AcDbEntity
  8
0
  6
Continuous
100
AcDbLine
 10
-5024.496321
 20
-32.19636599999831
 30
0.0
 11
-5052.496489999999
 21
-625.9364049999986
 31
0.0
  0
LINE
  5
5640
330
53E2
100
AcDbEntity
  8
0
  6
Continuous
100
AcDbLine
 10
-6253.725635999999
 20
-574.8941979999981
 30
0.0
 11
-6253.607869999999
 21
-572.3969739999984
 31
0.0
  0
LINE
  5
5641
330
53E2
100
AcDbEntity
  8
0
  6
Continuous
100
AcDbLine
 10
-6190.894614999999
 20
-641.5278689999986
 30
0.0
 11
-5272.764956999999
 21
-684.8256649999984
 31
0.0
  0
ARC
  5
5642
330
53E2
100
AcDbEntity
  8
0
  6
Continuous
100
AcDbCircle
 10
-5017.731063999999
 20
-708.3277279999992
 30
0.0
 40
55.85
100
AcDbArc
 50
267.3013315999765
 51
357.2986684000268
  0
ARC
  5
5643
330
53E2
100
AcDbEntity
  8
0
  6
Continuous
100
AcDbCircle
 10
-6266.354068999999
 20
-649.3354489999983
 30
0.0
 40
55.85
100
AcDbArc
 50
177.3013315999765
 51
267.3000000000255
  0
ARC
  5
5644
330
53E2
100
AcDbEntity
  8
0
  6
Continuous
100
AcDbCircle
 10
-6266.353931
 20
-649.3354549999985
 30
0.0
 40
34.15
100
AcDbArc
 50
177.301356099976
 51
267.3000000000255
  0
ARC
  5
5645
330
53E2
100
AcDbEntity
  8
0
  6
Continuous
100
AcDbCircle
 10
-5017.731195999999
 20
-708.3275949999997
 30
0.0
 40
34.15
100
AcDbArc
 50
267.3013560999785
 51
357.2986439000252
  0
LINE
  5
5646
330
53E2
100
AcDbEntity
  8
0
  6
Continuous
100
AcDbLine
 10
-5756.152145
 20
-707.5839139999989
 30
0.0
 11
-6267.962615999999
 21
-683.4475439999987
 31
0.0
  0
LINE
  5
5647
330
53E2
100
AcDbEntity
  8
0
  6
Continuous
100
AcDbLine
 10
-6268.984963999999
 20
-705.1234479999984
 30
0.0
 11
-5756.664763999999
 21
-729.283855999999
 31
0.0
  0
LWPOLYLINE
  5
5648
330
53E2
100
AcDbEntity
  8
0
  6
Continuous
100
AcDbPolyline
 90
       32
 70
     0
 43
0.0
 10
-5758.757577
 20
-729.2008379999988
 10
-5758.757321
 20
-729.2008549999991
 10
-5756.094313
 20
-729.2825349999985
 10
-5749.239133999999
 20
-729.4742269999987
 10
-5746.589749999999
 20
-729.380251999999
 10
-5743.958086999999
 20
-729.1987149999986
 10
-5741.351355999999
 20
-728.9301139999988
 10
-5738.776701999999
 20
-728.5751849999988
 10
-5736.241184
 20
-728.1348999999991
 10
-5733.751748999999
 20
-727.610467999998
 10
-5731.315223
 20
-727.0033239999984
 10
-5728.938281999999
 20
-726.3151329999991
 10
-5726.627442999999
 20
-725.5477819999987
 10
-5724.389039
 20
-724.7033739999988
 10
-5722.229203999999
 20
-723.7842219999992
 10
-5720.15386
 20
-722.7928469999987
 10
-5718.168695000001
 20
-721.7319659999985
 10
-5716.279149
 20
-720.6044869999978
 10
-5714.490403
 20
-719.4134989999984
 10
-5712.807358
 20
-718.1622679999982
 10
-5711.234626999999
 20
-716.8542229999984
 10
-5709.776523000001
 20
-715.4929489999986
 10
-5708.437039999999
 20
-714.0821769999984
 10
-5707.219851
 20
-712.6257739999982
 10
-5706.128291999999
 20
-711.1277319999981
 10
-5705.165354999999
 20
-709.5921579999985
 10
-5704.333677999999
 20
-708.0232589999996
 10
-5703.635543
 20
-706.4253359999993
 10
-5703.072860999998
 20
-704.8027699999993
 10
-5702.647176000001
 20
-703.1600069999986
 10
-5702.359654
 20
-701.501549999999
 10
-5702.211083
 20
-699.8319439999987
  0
LWPOLYLINE
  5
5649
330
53E2
100
AcDbEntity
  8
0
  6
Continuous
100
AcDbPolyline
 90
       31
 70
     0
 43
0.0
 10
-5757.735111
 20
-707.5249439999988
 10
-5756.207932999999
 20
-707.5828329999986
 10
-5754.683611
 20
-707.612361999998
 10
-5748.970984999999
 20
-707.8112989999981
 10
-5747.464889000001
 20
-707.7839459999986
 10
-5745.974114999999
 20
-707.7282249999989
 10
-5744.502747000001
 20
-707.6442889999989
 10
-5743.05482
 20
-707.5323669999988
 10
-5741.634301
 20
-707.3927679999979
 10
-5740.245084
 20
-707.2258729999975
 10
-5738.890978
 20
-707.032138999999
 10
-5737.575692
 20
-706.8120989999989
 10
-5736.302833999999
 20
-706.5663539999986
 10
-5735.07589
 20
-706.2955789999977
 10
-5733.898224999999
 20
-706.0005149999978
 10
-5732.773066
 20
-705.6819719999993
 10
-5731.703498000001
 20
-705.3408219999992
 10
-5730.692450999999
 20
-704.9780009999985
 10
-5729.742696999999
 20
-704.5945029999993
 10
-5728.856839999998
 20
-704.1913789999981
 10
-5728.037307000001
 20
-703.7697339999994
 10
-5727.286344
 20
-703.3307239999985
 10
-5726.60601
 20
-702.8755519999986
 10
-5725.998170000001
 20
-702.4054659999983
 10
-5725.46449
 20
-701.9217539999981
 10
-5725.006433
 20
-701.4257419999994
 10
-5724.625253
 20
-700.9187889999993
 10
-5724.321996
 20
-700.4022859999986
 10
-5724.097492999999
 20
-699.8776469999993
 10
-5723.952359999999
 20
-699.3463109999993
 10
-5723.886993
 20
-698.8097339999995
  0
LINE
  5
564A
330
53E2
100
AcDbEntity
  8
0
  6
Continuous
100
AcDbLine
 10
-5722.225843999999
 20
-663.5830679999981
 30
0.0
 11
-5723.887152999999
 21
-698.8110439999991
 31
0.0
  0
LINE
  5
564B
330
53E2
100
AcDbEntity
  8
0
  6
Continuous
100
AcDbLine
 10
-5702.263859999999
 20
-700.9489999999987
 30
0.0
 11
-5700.549933000001
 21
-664.605277999999
 31
0.0
  0
LINE
  5
564C
330
53E2
100
AcDbEntity
  8
0
  6
Continuous
100
AcDbLine
 10
-5020.360662000001
 20
-764.1157879999982
 30
0.0
 11
-5324.135735
 21
-749.7971949999992
 31
0.0
  0
LINE
  5
564D
330
53E2
100
AcDbEntity
  8
0
  6
Continuous
100
AcDbLine
 10
-5019.339074
 20
-742.4397229999977
 30
0.0
 11
-5323.113780999999
 21
-728.1212769999983
 31
0.0
  0
LINE
  5
564E
330
53E2
100
AcDbEntity
  8
0
  6
Continuous
100
AcDbLine
 10
-5531.149952999999
 20
-718.2948589999996
 30
0.0
 11
-5322.569368999999
 21
-728.1312689999985
 31
0.0
  0
LINE
  5
564F
330
53E2
100
AcDbEntity
  8
0
  6
Continuous
100
AcDbLine
 10
-5324.167648999999
 20
-749.7800129999987
 30
0.0
 11
-5532.681753999999
 21
-739.9467369999984
 31
0.0
  0
LINE
  5
5650
330
53E2
100
AcDbEntity
  8
0
  6
Continuous
100
AcDbLine
 10
-5560.780133
 20
-671.1966549999988
 30
0.0
 11
-5562.446152999999
 21
-706.5245189999987
 31
0.0
  0
LINE
  5
5651
330
53E2
100
AcDbEntity
  8
0
  6
Continuous
100
AcDbLine
 10
-5584.17468
 20
-706.618054999999
 30
0.0
 11
-5582.456043
 21
-670.1744449999996
 31
0.0
  0
LWPOLYLINE
  5
5652
330
53E2
100
AcDbEntity
  8
0
  6
Continuous
100
AcDbPolyline
 90
       31
 70
     0
 43
0.0
 10
-5529.568463
 20
-718.3851219999987
 10
-5531.094310999999
 20
-718.2990329999993
 10
-5532.614648
 20
-718.1849799999991
 10
-5538.320642000001
 20
-717.8454279999996
 10
-5539.817478999999
 20
-717.6764599999987
 10
-5541.296393999999
 20
-717.4806919999991
 10
-5542.753332
 20
-717.2586609999989
 10
-5544.184300999999
 20
-717.0109739999989
 10
-5545.585378
 20
-716.7383119999977
 10
-5546.952723
 20
-716.4414199999992
 10
-5548.282589000001
 20
-716.1211139999996
 10
-5549.571329
 20
-715.7782699999998
 10
-5550.815412
 20
-715.4138299999986
 10
-5552.011428
 20
-715.0287909999988
 10
-5553.156099
 20
-714.6242079999993
 10
-5554.246286
 20
-714.2011919999995
 10
-5555.279002999999
 20
-713.7609009999978
 10
-5556.251418
 20
-713.3045419999989
 10
-5557.160867
 20
-712.833365999998
 10
-5558.004855
 20
-712.3486649999986
 10
-5558.781070999999
 20
-711.8517659999988
 10
-5559.487385999999
 20
-711.3440329999985
 10
-5560.121864999999
 20
-710.8268559999997
 10
-5560.682768999999
 20
-710.3016529999995
 10
-5561.168559
 20
-709.769863999999
 10
-5561.577905
 20
-709.2329459999982
 10
-5561.909685
 20
-708.6923719999986
 10
-5562.162988
 20
-708.1496209999986
 10
-5562.337121999998
 20
-707.6061839999993
 10
-5562.431607999999
 20
-707.0635469999988
 10
-5562.446188
 20
-706.5231999999987
  0
LWPOLYLINE
  5
5653
330
53E2
100
AcDbEntity
  8
0
  6
Continuous
100
AcDbPolyline
 90
       32
 70
     0
 43
0.0
 10
-5530.590416999999
 20
-740.0610399999977
 10
-5530.590673
 20
-740.0610319999986
 10
-5533.24955
 20
-739.8917389999987
 10
-5540.092344999999
 20
-739.4374499999994
 10
-5542.721126999999
 20
-739.0945629999987
 10
-5545.324027000001
 20
-738.666170999998
 10
-5547.893910999999
 20
-738.1534459999984
 10
-5550.423735999999
 20
-737.5577959999982
 10
-5552.906568
 20
-736.8808519999983
 10
-5555.335601000001
 20
-736.1244709999982
 10
-5557.704175999999
 20
-735.2907239999986
 10
-5560.005803
 20
-734.3818979999978
 10
-5562.234172999999
 20
-733.4004829999985
 10
-5564.383177999999
 20
-732.3491699999995
 10
-5566.446926999999
 20
-731.2308389999989
 10
-5568.419764
 20
-730.0485569999982
 10
-5570.296280999999
 20
-728.8055639999993
 10
-5572.071335999999
 20
-727.5052659999983
 10
-5573.740061999998
 20
-726.1512279999988
 10
-5575.297886000001
 20
-724.7471609999993
 10
-5576.740539000001
 20
-723.2969139999995
 10
-5578.064065000001
 20
-721.8044619999982
 10
-5579.264838
 20
-720.2738939999989
 10
-5580.339565
 20
-718.7094079999988
 10
-5581.285301
 20
-717.1152899999979
 10
-5582.099454999999
 20
-715.4959089999993
 10
-5582.779794
 20
-713.8557059999993
 10
-5583.324453999999
 20
-712.1991749999988
 10
-5583.731940999999
 20
-710.5308559999993
 10
-5584.001139
 20
-708.855322999998
 10
-5584.131311
 20
-707.1771679999983
 10
-5584.122099
 20
-705.5009899999986
  0
LINE
  5
5654
330
53E2
100
AcDbEntity
  8
0
  6
Continuous
100
AcDbLine
 10
-4961.938415000001
 20
-710.8600309999992
 30
0.0
 11
-4946.196483
 21
-377.2179689999985
 31
0.0
  0
LINE
  5
5655
330
53E2
100
AcDbEntity
  8
0
  6
Continuous
100
AcDbLine
 10
-4959.961509999999
 20
-208.1134509999974
 30
0.0
 11
-4967.913663
 21
-376.7384399999983
 31
0.0
  0
LINE
  5
5656
330
53E2
100
AcDbEntity
  8
0
  6
Continuous
100
AcDbLine
 10
-4946.210585999999
 20
-377.1845799999992
 30
0.0
 11
-4938.261568
 21
-208.6260700000003
 31
0.0
  0
LINE
  5
5657
330
53E2
100
AcDbEntity
  8
0
  6
Continuous
100
AcDbLine
 10
-5003.962356
 20
-174.1871489999994
 30
0.0
 11
-4968.73438
 21
-175.8484579999985
 31
0.0
  0
LINE
  5
5658
330
53E2
100
AcDbEntity
  8
0
  6
Continuous
100
AcDbLine
 10
-4966.596423999999
 20
-154.225164999998
 30
0.0
 11
-5002.940145999999
 21
-152.5112389999994
 31
0.0
  0
LWPOLYLINE
  5
5659
330
53E2
100
AcDbEntity
  8
0
  6
Continuous
100
AcDbPolyline
 90
       31
 70
     0
 43
0.0
 10
-4960.020478999999
 20
-209.6964169999992
 10
-4959.962591
 20
-208.1692389999989
 10
-4959.933062000001
 20
-206.6449159999993
 10
-4959.734124999999
 20
-200.9322899999988
 10
-4959.761477999999
 20
-199.426195
 10
-4959.817198999999
 20
-197.9354199999998
 10
-4959.901135
 20
-196.4640529999997
 10
-4960.013056
 20
-195.0161259999986
 10
-4960.152656
 20
-193.5956069999993
 10
-4960.319551000001
 20
-192.2063899999975
 10
-4960.513284999999
 20
-190.8522829999983
 10
-4960.733324999999
 20
-189.5369979999977
 10
-4960.97907
 20
-188.264138999999
 10
-4961.249845000001
 20
-187.0371959999993
 10
-4961.544909
 20
-185.859531
 10
-4961.863452
 20
-184.7343719999989
 10
-4962.204601999999
 20
-183.6648029999997
 10
-4962.567423000001
 20
-182.6537569999982
 10
-4962.950921
 20
-181.7040029999989
 10
-4963.354044999999
 20
-180.8181449999993
 10
-4963.775690000001
 20
-179.9986119999976
 10
-4964.214699999999
 20
-179.2476499999993
 10
-4964.669872
 20
-178.5673159999987
 10
-4965.139957999999
 20
-177.9594759999981
 10
-4965.623669999999
 20
-177.4257959999977
 10
-4966.119681999998
 20
-176.9677379999994
 10
-4966.626634999999
 20
-176.586557999999
 10
-4967.143137999999
 20
-176.2833009999976
 10
-4967.667777
 20
-176.0587989999985
 10
-4968.199113
 20
-175.9136649999982
 10
-4968.735689999999
 20
-175.8482989999993
  0
LWPOLYLINE
  5
565A
330
53E2
100
AcDbEntity
  8
0
  6
Continuous
100
AcDbPolyline
 90
       32
 70
     0
 43
0.0
 10
-4938.344584999999
 20
-210.7188829999996
 10
-4938.344568999998
 20
-210.7186269999984
 10
-4938.262889
 20
-208.0556179999985
 10
-4938.071196999999
 20
-201.2004389999983
 10
-4938.165171999999
 20
-198.5510560000002
 10
-4938.346709
 20
-195.9193919999998
 10
-4938.615309999999
 20
-193.3126609999999
 10
-4938.970239
 20
-190.7380079999984
 10
-4939.410523999999
 20
-188.2024889999993
 10
-4939.934955999999
 20
-185.7130549999983
 10
-4940.542099999999
 20
-183.2765279999985
 10
-4941.230291
 20
-180.8995879999984
 10
-4941.997642
 20
-178.5887489999986
 10
-4942.842049999999
 20
-176.3503439999985
 10
-4943.761202
 20
-174.1905099999985
 10
-4944.752576000001
 20
-172.1151659999996
 10
-4945.813456999998
 20
-170.1299999999992
 10
-4946.940936999999
 20
-168.2404549999992
 10
-4948.131924
 20
-166.4517079999987
 10
-4949.383155999999
 20
-164.7686629999989
 10
-4950.691201
 20
-163.195932999999
 10
-4952.052474999998
 20
-161.7378279999993
 10
-4953.463247
 20
-160.3983459999981
 10
-4954.91965
 20
-159.1811569999991
 10
-4956.417691000001
 20
-158.0895979999986
 10
-4957.953266
 20
-157.1266599999981
 10
-4959.522165
 20
-156.2949840000001
 10
-4961.120087
 20
-155.5968479999974
 10
-4962.742653999999
 20
-155.0341659999994
 10
-4964.385416999999
 20
-154.6084809999993
 10
-4966.043873999999
 20
-154.3209589999987
 10
-4967.71348
 20
-154.172387999999
  0
LINE
  5
565B
330
53E2
100
AcDbEntity
  8
0
  6
Continuous
100
AcDbLine
 10
-6322.14213
 20
-646.7058499999994
 30
0.0
 11
-6306.416111
 21
-313.0716399999983
 31
0.0
  0
LINE
  5
565C
330
53E2
100
AcDbEntity
  8
0
  6
Continuous
100
AcDbLine
 10
-6276.793321999999
 20
-145.9131279999983
 30
0.0
 11
-6284.750185
 21
-314.6380059999992
 31
0.0
  0
LINE
  5
565D
330
53E2
100
AcDbEntity
  8
0
  6
Continuous
100
AcDbLine
 10
-6306.398929
 20
-313.0397269999985
 30
0.0
 11
-6298.4452
 21
-144.3813269999991
 31
0.0
  0
LINE
  5
565E
330
53E2
100
AcDbEntity
  8
0
  6
Continuous
100
AcDbLine
 10
-6229.795006999999
 20
-116.2782379999989
 30
0.0
 11
-6265.022982000001
 21
-114.6169279999994
 31
0.0
  0
LINE
  5
565F
330
53E2
100
AcDbEntity
  8
0
  6
Continuous
100
AcDbLine
 10
-6265.116518000001
 20
-92.88840099999834
 30
0.0
 11
-6228.772797
 21
-94.60232699999869
 31
0.0
  0
LWPOLYLINE
  5
5660
330
53E2
100
AcDbEntity
  8
0
  6
Continuous
100
AcDbPolyline
 90
       31
 70
     0
 43
0.0
 10
-6276.883585
 20
-147.4946179999988
 10
-6276.797496
 20
-145.9687699999995
 10
-6276.683443
 20
-144.4484329999995
 10
-6276.343891
 20
-138.7424389999996
 10
-6276.174923000001
 20
-137.245601999999
 10
-6275.979154999999
 20
-135.7666869999975
 10
-6275.757124
 20
-134.3097489999982
 10
-6275.509436999999
 20
-132.8787799999991
 10
-6275.236774999999
 20
-131.4777029999986
 10
-6274.939882999999
 20
-130.1103579999981
 10
-6274.619576999999
 20
-128.7804929999984
 10
-6274.276733999999
 20
-127.4917519999981
 10
-6273.912292999999
 20
-126.2476689999985
 10
-6273.527253999999
 20
-125.0516529999986
 10
-6273.122670999999
 20
-123.9069829999989
 10
-6272.699655
 20
-122.8167949999988
 10
-6272.259363999999
 20
-121.7840779999987
 10
-6271.803004999999
 20
-120.8116629999986
 10
-6271.331829000001
 20
-119.9022139999997
 10
-6270.847127999999
 20
-119.0582259999974
 10
-6270.35023
 20
-118.282009999999
 10
-6269.842495999999
 20
-117.5756949999995
 10
-6269.325319
 20
-116.9412159999992
 10
-6268.800116000001
 20
-116.3803119999975
 10
-6268.268327
 20
-115.8945219999987
 10
-6267.731409999999
 20
-115.4851759999983
 10
-6267.190835
 20
-115.1533959999978
 10
-6266.648084999999
 20
-114.9000929999983
 10
-6266.104647
 20
-114.7259589999994
 10
-6265.562011
 20
-114.6314729999976
 10
-6265.021664
 20
-114.6168929999985
  0
LWPOLYLINE
  5
5661
330
53E2
100
AcDbEntity
  8
0
  6
Continuous
100
AcDbPolyline
 90
       32
 70
     0
 43
0.0
 10
-6298.559502999999
 20
-146.472663999999
 10
-6298.559495
 20
-146.4724079999996
 10
-6298.390202000001
 20
-143.8135309999998
 10
-6297.935912999999
 20
-136.9707359999993
 10
-6297.593026000001
 20
-134.341954999998
 10
-6297.164633999999
 20
-131.7390539999978
 10
-6296.651909999998
 20
-129.1691699999992
 10
-6296.056259
 20
-126.6393449999996
 10
-6295.379316
 20
-124.1565129999981
 10
-6294.622934000001
 20
-121.7274809999999
 10
-6293.789187
 20
-119.3589049999991
 10
-6292.880360999999
 20
-117.0572779999984
 10
-6291.898945999999
 20
-114.8289079999995
 10
-6290.847632999999
 20
-112.6799029999983
 10
-6289.729302
 20
-110.6161539999975
 10
-6288.54702
 20
-108.643317
 10
-6287.304027000001
 20
-106.7667999999994
 10
-6286.003729
 20
-104.9917449999993
 10
-6284.649691000001
 20
-103.3230189999994
 10
-6283.245625
 20
-101.7651949999999
 10
-6281.795377
 20
-100.3225419999999
 10
-6280.302925
 20
-98.99901599999793
 10
-6278.772358000001
 20
-97.79824399999961
 10
-6277.207871000001
 20
-96.72351599999821
 10
-6275.613753
 20
-95.77777999999852
 10
-6273.994373
 20
-94.96362599999883
 10
-6272.354169
 20
-94.28328699999838
 10
-6270.697638
 20
-93.73862699999881
 10
-6269.029318999999
 20
-93.33113999999842
 10
-6267.353786
 20
-93.06194199999845
 10
-6265.675631
 20
-92.93176999999923
 10
-6263.999453999999
 20
-92.94098299999859
  0
LINE
  5
5662
330
53E2
100
AcDbEntity
  8
0
  6
Continuous
100
AcDbLine
 10
-5019.426656
 20
-502.1068389999991
 30
0.0
 11
-5011.969729999999
 21
-343.9825709999987
 31
0.0
  0
LINE
  5
5663
330
53E2
100
AcDbEntity
  8
0
  6
Continuous
100
AcDbLine
 10
-5025.326734
 20
-627.2176989999989
 30
0.0
 11
-5019.426656
 21
-502.1068389999991
 31
0.0
  0
LINE
  5
5664
330
53E2
100
AcDbEntity
  8
0
  6
Continuous
100
AcDbLine
 10
-5052.496489999999
 20
-625.9364049999986
 30
0.0
 11
-5052.760190999999
 21
-631.5302909999991
 31
0.0
  0
LINE
  5
5665
330
53E2
100
AcDbEntity
  8
0
  6
Continuous
100
AcDbLine
 10
-5025.326734
 20
-627.2176989999989
 30
0.0
 11
-5025.590622
 21
-632.811330999999
 31
0.0
  0
LINE
  5
5666
330
53E2
100
AcDbEntity
  8
0
  6
Continuous
100
AcDbLine
 10
-5052.590702999999
 20
-627.9341849999982
 30
0.0
 11
-5052.496489999999
 21
-625.9364049999986
 31
0.0
  0
LINE
  5
5667
330
53E2
100
AcDbEntity
  8
0
  6
Continuous
100
AcDbLine
 10
-5025.420947
 20
-629.2154779999991
 30
0.0
 11
-5025.326734
 21
-627.2176989999989
 31
0.0
  0
LINE
  5
5668
330
53E2
100
AcDbEntity
  8
0
  6
Continuous
100
AcDbLine
 10
-5272.765006
 20
-684.8256629999987
 30
0.0
 11
-5092.115992
 21
-693.3448539999981
 31
0.0
  0
ARC
  5
5669
330
53E2
100
AcDbEntity
  8
0
  6
Continuous
100
AcDbCircle
 10
-5089.120016999999
 20
-629.815360999999
 30
0.0
 40
63.59999847
100
AcDbArc
 50
267.3000000000255
 51
357.2999999999735
  0
ARC
  5
566A
330
53E2
100
AcDbEntity
  8
0
  6
Continuous
100
AcDbCircle
 10
-6187.898634999999
 20
-577.9982759999984
 30
0.0
 40
63.59999847
100
AcDbArc
 50
177.2999999999735
 51
267.3000000000255
  0
ARC
  5
566B
330
53E2
100
AcDbEntity
  8
0
  6
Continuous
100
AcDbCircle
 10
-5089.119784000001
 20
-629.8156159999989
 30
0.0
 40
36.40000153
100
AcDbArc
 50
267.3000000000255
 51
357.2999999999735
  0
ARC
  5
566C
330
53E2
100
AcDbEntity
  8
0
  6
Continuous
100
AcDbCircle
 10
-6187.898647
 20
-577.9985199999991
 30
0.0
 40
36.40000153
100
AcDbArc
 50
177.2999999999735
 51
267.3000000000255
  0
LINE
  5
566D
330
53E2
100
AcDbEntity
  8
0
  6
Continuous
100
AcDbLine
 10
1229.701681
 20
-198.1063089999988
 30
0.0
 11
1269.656042
 21
-200.0165579999993
 31
0.0
  0
LWPOLYLINE
  5
566E
330
53E2
100
AcDbEntity
  8
0
  6
Continuous
100
AcDbPolyline
 90
        5
 70
     0
 43
0.0
 10
1229.624976000001
 20
-199.7106530000001
 10
1230.692622
 20
-177.3799839999992
 10
1270.646983
 20
-179.2902329999997
 10
1269.579337000001
 20
-201.6209019999987
 10
1229.624976000001
 20
-199.7106530000001
  0
LINE
  5
566F
330
53E2
100
AcDbEntity
  8
0
  6
Continuous
100
AcDbLine
 10
1240.704532
 20
-194.121556
 30
0.0
 11
1240.403667
 21
-200.4143679999979
 31
0.0
  0
LINE
  5
5670
330
53E2
100
AcDbEntity
  8
0
  6
Continuous
100
AcDbLine
 10
1258.38313
 20
-201.2739799999981
 30
0.0
 11
1258.683993999999
 21
-194.9811679999984
 31
0.0
  0
LINE
  5
5671
330
53E2
100
AcDbEntity
  8
0
  6
Continuous
100
AcDbLine
 10
1269.370579
 20
-201.7992979999981
 30
0.0
 11
1229.416218
 21
-199.8890499999997
 31
0.0
  0
LINE
  5
5672
330
53E2
100
AcDbEntity
  8
0
  6
Continuous
100
AcDbLine
 10
1229.717082000001
 20
-193.5962379999983
 30
0.0
 11
1269.671443000001
 21
-195.5064859999984
 31
0.0
  0
LINE
  5
5673
330
53E2
100
AcDbEntity
  8
0
  6
Continuous
100
AcDbLine
 10
1269.360424999999
 20
-202.0116749999997
 30
0.0
 11
1229.406064000001
 21
-200.1014259999974
 31
0.0
  0
LWPOLYLINE
  5
5674
330
53E2
100
AcDbEntity
  8
0
  6
Continuous
100
AcDbPolyline
 90
        5
 70
     0
 43
0.0
 10
1269.289098000001
 20
-203.5035289999978
 10
1270.356745000001
 20
-181.1728599999987
 10
1230.402384000001
 20
-179.2626109999983
 10
1229.334738000001
 20
-201.5932799999991
 10
1269.289098000001
 20
-203.5035289999978
  0
ARC
  5
5675
330
53E2
100
AcDbEntity
  8
0
  6
Continuous
100
AcDbCircle
 10
872.2372400000004
 20
-161.5996829999985
 30
0.0
 40
25.0
100
AcDbArc
 50
87.26272908000321
 51
92.77321821997116
  0
LINE
  5
5676
330
53E2
100
AcDbEntity
  8
0
  6
Continuous
100
AcDbLine
 10
803.5431320000007
 20
-116.8103849999988
 30
0.0
 11
803.6151969999991
 21
-117.5709379999989
 31
0.0
  0
LWPOLYLINE
  5
5677
330
53E2
100
AcDbEntity
  8
0
  6
Continuous
100
AcDbPolyline
 90
        6
 70
     0
 43
0.0
 10
550.1941279999991
 20
-127.1808499999988
 10
870.7466480000002
 20
-142.5067129999988
 10
871.0331850000002
 20
-136.5135589999991
 10
841.0674139999992
 20
-135.0808719999986
 10
831.8285969999998
 20
-118.9212229999975
 10
551.2304380000005
 20
-105.5056089999998
  0
LINE
  5
5678
330
53E2
100
AcDbEntity
  8
0
  6
Continuous
100
AcDbLine
 10
819.2436720000005
 20
-118.319528
 30
0.0
 11
823.03074
 21
-39.11000799999965
 31
0.0
  0
ARC
  5
5679
330
53E2
100
AcDbEntity
  8
0
  6
Continuous
100
AcDbCircle
 10
652.7643919999991
 20
-121.22242
 30
0.0
 40
21.25
100
AcDbArc
 50
152.2051137000113
 51
202.320344499988
  0
ARC
  5
567A
330
53E2
100
AcDbEntity
  8
0
  6
Continuous
100
AcDbCircle
 10
550.7122829999989
 20
-116.3432299999985
 30
0.0
 40
10.85
100
AcDbArc
 50
87.26272908000321
 51
267.2627291000355
  0
ARC
  5
567B
330
53E2
100
AcDbEntity
  8
0
  6
Continuous
100
AcDbCircle
 10
1022.013954
 20
-543.9887499999995
 30
0.0
 40
14.2
100
AcDbArc
 50
231.2353557000355
 51
267.2627291000355
  0
LINE
  5
567C
330
53E2
100
AcDbEntity
  8
0
  6
Continuous
100
AcDbLine
 10
1014.147311
 20
-559.8311449999991
 30
0.0
 11
524.1161710000015
 21
-469.8320959999982
 31
0.0
  0
ARC
  5
567D
330
53E2
100
AcDbEntity
  8
0
  6
Continuous
100
AcDbCircle
 10
1451.358352000001
 20
-537.2503069999984
 30
0.0
 40
14.2
100
AcDbArc
 50
302.2547492999972
 51
357.2627290999835
  0
LINE
  5
567E
330
53E2
100
AcDbEntity
  8
0
  6
Continuous
100
AcDbLine
 10
813.8998510000002
 20
-179.8345149999986
 30
0.0
 11
1481.137682
 21
-211.7356689999997
 31
0.0
  0
LINE
  5
567F
330
53E2
100
AcDbEntity
  8
0
  6
Continuous
100
AcDbLine
 10
1465.542152000002
 20
-537.9284449999995
 30
0.0
 11
1483.047922
 21
-171.7813079999996
 31
0.0
  0
ARC
  5
5680
330
53E2
100
AcDbEntity
  8
0
  6
Continuous
100
AcDbCircle
 10
1411.195522
 20
-562.5958199999995
 30
0.0
 40
14.2
100
AcDbArc
 50
267.2627291000355
 51
302.2547492999972
  0
LINE
  5
5681
330
53E2
100
AcDbEntity
  8
0
  6
Continuous
100
AcDbLine
 10
1418.773842
 20
-574.6045269999986
 30
0.0
 11
1458.936672
 21
-549.2590139999992
 31
0.0
  0
ARC
  5
5682
330
53E2
100
AcDbEntity
  8
0
  6
Continuous
100
AcDbCircle
 10
820.4458250000007
 20
-382.1285009999983
 30
0.0
 40
14.2
100
AcDbArc
 50
177.2627290999834
 51
231.2353557000355
  0
LINE
  5
5683
330
53E2
100
AcDbEntity
  8
0
  6
Continuous
100
AcDbLine
 10
811.5548809999999
 20
-393.2005879999988
 30
0.0
 11
1013.123011
 21
-555.0608379999984
 31
0.0
  0
LINE
  5
5684
330
53E2
100
AcDbEntity
  8
0
  6
Continuous
100
AcDbLine
 10
1021.335816000001
 20
-558.1725479999977
 30
0.0
 11
1410.517382
 21
-576.779618999999
 31
0.0
  0
LINE
  5
5685
330
53E2
100
AcDbEntity
  8
0
  6
Continuous
100
AcDbLine
 10
817.8071189999991
 20
-139.9756329999982
 30
0.0
 11
806.2620270000007
 21
-381.450362999999
 31
0.0
  0
ARC
  5
5686
330
53E2
100
AcDbEntity
  8
0
  6
Continuous
100
AcDbCircle
 10
1022.013954
 20
-543.9887499999995
 30
0.0
 40
16.2
100
AcDbArc
 50
231.2353557000355
 51
267.2627291000355
  0
ARC
  5
5687
330
53E2
100
AcDbEntity
  8
0
  6
Continuous
100
AcDbCircle
 10
820.4458250000007
 20
-382.1285009999983
 30
0.0
 40
16.2
100
AcDbArc
 50
177.2627290999834
 51
231.2353557000355
  0
LWPOLYLINE
  5
5688
330
53E2
100
AcDbEntity
  8
0
  6
Continuous
100
AcDbPolyline
 90
        4
 70
     0
 43
0.0
 10
804.2643090000002
 20
-381.3548499999988
 10
815.8094010000004
 20
-139.8801209999983
 10
1485.045641999999
 20
-171.876820999998
 10
1467.539871999999
 20
-538.0239569999985
  0
ARC
  5
5689
330
53E2
100
AcDbEntity
  8
0
  6
Continuous
100
AcDbCircle
 10
1411.195522
 20
-562.5958199999995
 30
0.0
 40
16.2
100
AcDbArc
 50
267.2627291000355
 51
302.2547492999972
  0
LINE
  5
568A
330
53E2
100
AcDbEntity
  8
0
  6
Continuous
100
AcDbLine
 10
1014.147311
 20
-559.8311449999991
 30
0.0
 11
1410.421871999999
 21
-578.7773369999976
 31
0.0
  0
LINE
  5
568B
330
53E2
100
AcDbEntity
  8
0
  6
Continuous
100
AcDbLine
 10
1419.841212000001
 20
-576.2958949999992
 30
0.0
 11
1460.004042
 21
-550.9503809999996
 31
0.0
  0
LINE
  5
568C
330
53E2
100
AcDbEntity
  8
0
  6
Continuous
100
AcDbLine
 10
1011.870765
 20
-556.6202869999979
 30
0.0
 11
810.3026360000002
 21
-394.7600369999982
 31
0.0
  0
ARC
  5
568D
330
53E2
100
AcDbEntity
  8
0
  6
Continuous
100
AcDbCircle
 10
1451.358352000001
 20
-537.2503069999984
 30
0.0
 40
16.2
100
AcDbArc
 50
302.2547492999972
 51
357.2627290999835
  0
LINE
  5
568E
330
53E2
100
AcDbEntity
  8
0
  6
Continuous
100
AcDbLine
 10
499.5695570000007
 20
-438.8929229999976
 30
0.0
 11
516.0192719999995
 21
-94.83413999999902
 31
0.0
  0
LINE
  5
568F
330
53E2
100
AcDbEntity
  8
0
  6
Continuous
100
AcDbLine
 10
534.8893889999999
 20
-68.39414299999771
 30
0.0
 11
599.291451000001
 21
-42.75674699999945
 31
0.0
  0
ARC
  5
5690
330
53E2
100
AcDbEntity
  8
0
  6
Continuous
100
AcDbCircle
 10
545.9850430000005
 20
-96.26682599999732
 30
0.0
 40
30.0
100
AcDbArc
 50
111.7066839000161
 51
177.2627290999834
  0
ARC
  5
5691
330
53E2
100
AcDbEntity
  8
0
  6
Continuous
100
AcDbCircle
 10
529.5353279999999
 20
-440.3256089999995
 30
0.0
 40
30.0
100
AcDbArc
 50
177.2627290999834
 51
259.5930431999903
  0
ARC
  5
5692
330
53E2
100
AcDbEntity
  8
0
  6
Continuous
100
AcDbCircle
 10
580.7986939999991
 20
3.697724000001471
 30
0.0
 40
50.0
100
AcDbArc
 50
291.7066839000161
 51
318.6673867000055
  0
LINE
  5
5693
330
53E2
100
AcDbEntity
  8
0
  6
Continuous
100
AcDbLine
 10
1275.516282000001
 20
-60.6932489999981
 30
0.0
 11
1274.033434000001
 21
-91.708204999999
 31
0.0
  0
LINE
  5
5694
330
53E2
100
AcDbEntity
  8
0
  6
Continuous
100
AcDbLine
 10
1282.024305999999
 20
-92.09025499999915
 30
0.0
 11
1283.507241000001
 21
-61.07348499999898
 31
0.0
  0
LWPOLYLINE
  5
5695
330
53E2
100
AcDbEntity
  8
0
  6
Continuous
100
AcDbPolyline
 90
        4
 70
     0
 43
0.0
 10
1736.203541999999
 20
298.6657070000019
 10
1735.917002
 20
292.6725530000003
 10
1845.791492
 20
287.4193690000011
 10
1846.364572
 20
299.4056770000025
  0
LINE
  5
5696
330
53E2
100
AcDbEntity
  8
0
  6
Continuous
100
AcDbLine
 10
882.1262969999988
 20
409.5797570000013
 30
0.0
 11
1815.452471999999
 21
364.9567140000018
 31
0.0
  0
ARC
  5
5697
330
53E2
100
AcDbEntity
  8
0
  6
Continuous
100
AcDbCircle
 10
899.2632030000004
 20
427.7821320000021
 30
0.0
 40
25.0
100
AcDbArc
 50
194.7203322000224
 51
267.2627291000355
  0
LWPOLYLINE
  5
5698
330
53E2
100
AcDbEntity
  8
0
  6
Continuous
100
AcDbPolyline
 90
        4
 70
     0
 43
0.0
 10
1046.370014
 20
-49.78803100000004
 10
1314.102013000001
 20
-137.6741749999982
 10
1313.146888000001
 20
-157.6513549999981
 10
873.4311450000005
 20
-136.6282069999979
  0
LINE
  5
5699
330
53E2
100
AcDbEntity
  8
0
  6
Continuous
100
AcDbLine
 10
1519.986802000001
 20
309.0031950000011
 30
0.0
 11
1518.810222
 21
284.3940660000007
 31
0.0
  0
LINE
  5
569A
330
53E2
100
AcDbEntity
  8
0
  6
Continuous
100
AcDbLine
 10
1526.801562
 20
284.0217590000011
 30
0.0
 11
1527.977682000001
 21
308.6211460000013
 31
0.0
  0
LINE
  5
569B
330
53E2
100
AcDbEntity
  8
0
  6
Continuous
100
AcDbLine
 10
1500.311241999999
 20
-102.5267209999983
 30
0.0
 11
1501.505152000001
 21
-77.55524599999808
 31
0.0
  0
LINE
  5
569C
330
53E2
100
AcDbEntity
  8
0
  6
Continuous
100
AcDbLine
 10
1509.496021999999
 20
-77.93729599999824
 30
0.0
 11
1508.302112000001
 21
-102.9087709999985
 31
0.0
  0
LINE
  5
569D
330
53E2
100
AcDbEntity
  8
0
  6
Continuous
100
AcDbLine
 10
1663.541752000001
 20
-180.4108569999989
 30
0.0
 11
1793.090132000001
 21
-186.6046649999989
 31
0.0
  0
LINE
  5
569E
330
53E2
100
AcDbEntity
  8
0
  6
Continuous
100
AcDbLine
 10
1668.492932000001
 20
-110.5676169999988
 30
0.0
 11
1157.032574000001
 21
-86.1143039999988
 31
0.0
  0
LINE
  5
569F
330
53E2
100
AcDbEntity
  8
0
  6
Continuous
100
AcDbLine
 10
1728.712102000001
 20
299.0238780000018
 30
0.0
 11
1176.708135999999
 21
325.415613000001
 31
0.0
  0
LINE
  5
56A0
330
53E2
100
AcDbEntity
  8
0
  6
Continuous
100
AcDbLine
 10
1479.160341999999
 20
403.5056360000017
 30
0.0
 11
1220.282607000001
 21
519.1342570000015
 31
0.0
  0
LINE
  5
56A1
330
53E2
100
AcDbEntity
  8
0
  6
Continuous
100
AcDbLine
 10
839.1834010000001
 20
-140.9976499999993
 30
0.0
 11
1614.997202
 21
-178.0899049999989
 31
0.0
  0
LINE
  5
56A2
330
53E2
100
AcDbEntity
  8
0
  6
Continuous
100
AcDbLine
 10
846.9777940000003
 20
-200.1935729999987
 30
0.0
 11
1318.201741999999
 21
-222.723152999999
 31
0.0
  0
LINE
  5
56A3
330
53E2
100
AcDbEntity
  8
0
  6
Continuous
100
AcDbLine
 10
939.756088
 20
-185.8517989999982
 30
0.0
 11
1175.089259
 21
-197.1032589999995
 31
0.0
  0
LWPOLYLINE
  5
56A4
330
53E2
100
AcDbEntity
  8
0
  6
Continuous
100
AcDbPolyline
 90
        3
 70
     0
 43
0.0
 10
834.9760540000007
 20
-388.1392109999988
 10
1314.428384000001
 20
-411.062195999998
 10
1324.316811
 20
-204.2379429999983
  0
LINE
  5
56A5
330
53E2
100
AcDbEntity
  8
0
  6
Continuous
100
AcDbLine
 10
1922.764542000001
 20
353.8191880000013
 30
0.0
 11
1816.931071999999
 21
358.879167000001
 31
0.0
  0
ARC
  5
56A6
330
53E2
100
AcDbEntity
  8
0
  6
Continuous
100
AcDbCircle
 10
1798.408412
 20
301.6984980000016
 30
0.0
 40
6.0
100
AcDbArc
 50
267.2627291000355
 51
357.2627290999835
  0
ARC
  5
56A7
330
53E2
100
AcDbEntity
  8
0
  6
Continuous
100
AcDbCircle
 10
1802.174902000001
 20
301.518419
 30
0.0
 40
6.0
100
AcDbArc
 50
267.2627291000355
 51
357.2627290999835
  0
LINE
  5
56A8
330
53E2
100
AcDbEntity
  8
0
  6
Continuous
100
AcDbLine
 10
1801.888371999999
 20
295.525265000002
 30
0.0
 11
1688.168492000001
 21
300.9622990000025
 31
0.0
  0
LINE
  5
56A9
330
53E2
100
AcDbEntity
  8
0
  6
Continuous
100
AcDbLine
 10
1900.120252
 20
296.8355760000013
 30
0.0
 11
1902.890112000001
 21
354.7694000000011
 31
0.0
  0
ARC
  5
56AA
330
53E2
100
AcDbEntity
  8
0
  6
Continuous
100
AcDbCircle
 10
1818.871192000001
 20
352.779555000001
 30
0.0
 40
12.0
100
AcDbArc
 50
87.26272908000321
 51
177.2627290999834
  0
ARC
  5
56AB
330
53E2
100
AcDbEntity
  8
0
  6
Continuous
100
AcDbCircle
 10
1816.644532
 20
352.8860130000012
 30
0.0
 40
6.0
100
AcDbArc
 50
87.26272908000321
 51
177.2627290999834
  0
LINE
  5
56AC
330
53E2
100
AcDbEntity
  8
0
  6
Continuous
100
AcDbLine
 10
1810.651382
 20
353.1725510000015
 30
0.0
 11
1808.168062000001
 21
301.2318810000015
 31
0.0
  0
LINE
  5
56AD
330
53E2
100
AcDbEntity
  8
0
  6
Continuous
100
AcDbLine
 10
1804.401562000001
 20
301.4119600000013
 30
0.0
 11
1806.884882
 21
353.3526300000012
 31
0.0
  0
LINE
  5
56AE
330
53E2
100
AcDbEntity
  8
0
  6
Continuous
100
AcDbLine
 10
1808.168062000001
 20
301.2318810000015
 30
0.0
 11
1900.120252
 21
296.8355760000013
 31
0.0
  0
LWPOLYLINE
  5
56AF
330
53E2
100
AcDbEntity
  8
0
  6
Continuous
100
AcDbPolyline
 90
        4
 70
     0
 43
0.0
 10
1736.203541999999
 20
298.6657070000019
 10
1735.917002
 20
292.6725530000003
 10
1845.791492
 20
287.4193690000011
 10
1846.364572
 20
299.4056770000025
  0
LINE
  5
56B0
330
53E2
100
AcDbEntity
  8
0
  6
Continuous
100
AcDbLine
 10
1242.767185999999
 20
322.2572790000013
 30
0.0
 11
1241.288596999999
 21
291.3314220000011
 31
0.0
  0
ARC
  5
56B1
330
53E2
100
AcDbEntity
  8
0
  6
Continuous
100
AcDbCircle
 10
1900.967521999999
 20
289.787072000001
 30
0.0
 40
10.0
100
AcDbArc
 50
267.2627291000355
 51
357.2627290999835
  0
LINE
  5
56B2
330
53E2
100
AcDbEntity
  8
0
  6
Continuous
100
AcDbLine
 10
1900.489961999999
 20
279.7984810000016
 30
0.0
 11
1902.644712000001
 21
279.6954610000012
 31
0.0
  0
ARC
  5
56B3
330
53E2
100
AcDbEntity
  8
0
  6
Continuous
100
AcDbCircle
 10
1893.133682000001
 20
290.1616140000006
 30
0.0
 40
10.0
100
AcDbArc
 50
267.2627291000355
 51
357.2627290999835
  0
LINE
  5
56B4
330
53E2
100
AcDbEntity
  8
0
  6
Continuous
100
AcDbLine
 10
1903.122272
 20
289.684051000002
 30
0.0
 11
1906.226422
 21
354.6098880000027
 31
0.0
  0
ARC
  5
56B5
330
53E2
100
AcDbEntity
  8
0
  6
Continuous
100
AcDbCircle
 10
1778.159771999999
 20
-121.8177269999978
 30
0.0
 40
6.0
100
AcDbArc
 50
357.2627290999835
 51
87.26272910003549
  0
ARC
  5
56B6
330
53E2
100
AcDbEntity
  8
0
  6
Continuous
100
AcDbCircle
 10
1781.926272000001
 20
-121.9978059999994
 30
0.0
 40
6.0
100
AcDbArc
 50
357.2627290999835
 51
87.26272910003549
  0
ARC
  5
56B7
330
53E2
100
AcDbEntity
  8
0
  6
Continuous
100
AcDbCircle
 10
1873.553632000001
 20
-119.3705849999987
 30
0.0
 40
10.0
100
AcDbArc
 50
357.2627290999835
 51
87.26272910003549
  0
ARC
  5
56B8
330
53E2
100
AcDbEntity
  8
0
  6
Continuous
100
AcDbCircle
 10
1881.387472
 20
-119.7451269999983
 30
0.0
 40
10.0
100
AcDbArc
 50
357.2627290999835
 51
87.26272910003549
  0
LINE
  5
56B9
330
53E2
100
AcDbEntity
  8
0
  6
Continuous
100
AcDbLine
 10
1883.542222
 20
-119.8481469999988
 30
0.0
 11
1880.438062000001
 21
-184.7739829999991
 31
0.0
  0
LINE
  5
56BA
330
53E2
100
AcDbEntity
  8
0
  6
Continuous
100
AcDbLine
 10
1888.271912
 20
-185.148525999999
 30
0.0
 11
1891.376062000001
 21
-120.2226889999983
 31
0.0
  0
LINE
  5
56BB
330
53E2
100
AcDbEntity
  8
0
  6
Continuous
100
AcDbLine
 10
1782.212802
 20
-116.0046519999978
 30
0.0
 11
1668.492932000001
 21
-110.5676169999988
 31
0.0
  0
LINE
  5
56BC
330
53E2
100
AcDbEntity
  8
0
  6
Continuous
100
AcDbLine
 10
1308.481379
 20
-137.4054479999977
 30
0.0
 11
1314.102013000001
 21
-137.6741749999982
 31
0.0
  0
LINE
  5
56BD
330
53E2
100
AcDbEntity
  8
0
  6
Continuous
100
AcDbLine
 10
1879.871612000001
 20
-126.6806479999977
 30
0.0
 11
1877.101752
 21
-184.6144719999993
 31
0.0
  0
ARC
  5
56BE
330
53E2
100
AcDbEntity
  8
0
  6
Continuous
100
AcDbCircle
 10
1793.655912
 20
-174.6180079999994
 30
0.0
 40
12.0
100
AcDbArc
 50
177.2627290999834
 51
267.2627291000355
  0
LWPOLYLINE
  5
56BF
330
53E2
100
AcDbEntity
  8
0
  6
Continuous
100
AcDbPolyline
 90
        3
 70
     0
 43
0.0
 10
1793.082832
 20
-186.604315999999
 10
1896.689641999999
 20
-191.5578379999988
 10
1896.976182
 20
-185.5646829999987
  0
ARC
  5
56C0
330
53E2
100
AcDbEntity
  8
0
  6
Continuous
100
AcDbCircle
 10
1791.429252000002
 20
-174.5115499999992
 30
0.0
 40
6.0
100
AcDbArc
 50
177.2627290999834
 51
267.2627291000355
  0
LINE
  5
56C1
330
53E2
100
AcDbEntity
  8
0
  6
Continuous
100
AcDbLine
 10
1785.436102000002
 20
-174.2250119999989
 30
0.0
 11
1787.919421999999
 21
-122.2843429999975
 31
0.0
  0
LINE
  5
56C2
330
53E2
100
AcDbEntity
  8
0
  6
Continuous
100
AcDbLine
 10
1784.152921999999
 20
-122.1042639999996
 30
0.0
 11
1781.669602000002
 21
-174.0449329999992
 31
0.0
  0
LINE
  5
56C3
330
53E2
100
AcDbEntity
  8
0
  6
Continuous
100
AcDbLine
 10
1896.976182
 20
-185.5646829999987
 30
0.0
 11
1791.142712000001
 21
-180.504703999999
 31
0.0
  0
LINE
  5
56C4
330
53E2
100
AcDbEntity
  8
0
  6
Continuous
100
AcDbLine
 10
1787.919421999999
 20
-122.2843429999975
 30
0.0
 11
1879.871612000001
 21
-126.6806479999977
 31
0.0
  0
LINE
  5
56C5
330
53E2
100
AcDbEntity
  8
0
  6
Continuous
100
AcDbLine
 10
1337.980121999999
 20
361.7553350000016
 30
0.0
 11
1332.359489
 21
362.0240620000022
 31
0.0
  0
LWPOLYLINE
  5
56C6
330
53E2
100
AcDbEntity
  8
0
  6
Continuous
100
AcDbPolyline
 90
        3
 70
     0
 43
0.0
 10
1307.526255000001
 20
-157.3826289999979
 10
1308.481379
 20
-137.4054479999977
 10
1040.742457
 20
-49.51897299999837
  0
LWPOLYLINE
  5
56C7
330
53E2
100
AcDbEntity
  8
0
  6
Continuous
100
AcDbPolyline
 90
        4
 70
     0
 43
0.0
 10
898.0692969999999
 20
402.8106560000014
 10
1338.935246000001
 20
381.732516
 10
1337.980121999999
 20
361.7553350000016
 10
1063.084691000002
 20
299.8126270000012
  0
LWPOLYLINE
  5
56C8
330
53E2
100
AcDbEntity
  8
0
  6
Continuous
100
AcDbPolyline
 90
        3
 70
     0
 43
0.0
 10
1333.314613
 20
382.0012430000024
 10
1332.359489
 20
362.0240620000022
 10
1057.457134
 20
300.0816840000007
  0
LWPOLYLINE
  5
56C9
330
53E2
100
AcDbEntity
  8
0
  6
Continuous
100
AcDbPolyline
 90
        4
 70
     0
 43
0.0
 10
1716.527982000001
 20
-112.8642099999979
 10
1716.814522000001
 20
-106.8710559999999
 10
1826.689012000001
 20
-112.1242399999973
 10
1826.115932000001
 20
-124.1105479999987
  0
LWPOLYLINE
  5
56CA
330
53E2
100
AcDbEntity
  8
0
  6
Continuous
100
AcDbPolyline
 90
        3
 70
     0
 43
0.0
 10
1815.452471999999
 20
364.9567140000018
 10
1923.051072
 20
359.8123420000011
 10
1922.764542000001
 20
353.8191880000013
  0
LINE
  5
56CB
330
53E2
100
AcDbEntity
  8
0
  6
Continuous
100
AcDbLine
 10
1914.060272000001
 20
354.2353460000013
 30
0.0
 11
1910.956112
 21
289.3095090000006
 31
0.0
  0
ARC
  5
56CC
330
53E2
100
AcDbEntity
  8
0
  6
Continuous
100
AcDbCircle
 10
1458.714642000001
 20
357.8769890000003
 30
0.0
 40
50.0
100
AcDbArc
 50
26.08942678997759
 51
65.86337024996732
  0
ARC
  5
56CD
330
53E2
100
AcDbEntity
  8
0
  6
Continuous
100
AcDbCircle
 10
1062.124512
 20
124.6586340000012
 30
0.0
 40
425.0
100
AcDbArc
 50
148.7593745999892
 51
152.9469898999965
  0
ARC
  5
56CE
330
53E2
100
AcDbEntity
  8
0
  6
Continuous
100
AcDbCircle
 10
1062.124512
 20
124.6586340000012
 30
0.0
 40
425.0
100
AcDbArc
 50
68.15254676996288
 51
125.7660835000449
  0
ARC
  5
56CF
330
53E2
100
AcDbEntity
  8
0
  6
Continuous
100
AcDbCircle
 10
673.1009950000006
 20
360.6368180000008
 30
0.0
 40
30.0
100
AcDbArc
 50
328.7593745999892
 51
350.9358983000068
  0
ARC
  5
56D0
330
53E2
100
AcDbEntity
  8
0
  6
Continuous
100
AcDbCircle
 10
796.1872679999997
 20
493.8501590000014
 30
0.0
 40
30.0
100
AcDbArc
 50
283.589559899953
 51
305.766083500045
  0
ARC
  5
56D1
330
53E2
100
AcDbEntity
  8
0
  6
Continuous
100
AcDbCircle
 10
740.5422249999992
 20
402.5252070000024
 30
0.0
 40
30.0
100
AcDbArc
 50
139.1709976000366
 51
170.9358983000068
  0
ARC
  5
56D2
330
53E2
100
AcDbEntity
  8
0
  6
Continuous
100
AcDbCircle
 10
759.7507219999989
 20
423.3141070000019
 30
0.0
 40
30.0
100
AcDbArc
 50
103.589559899953
 51
135.3544604999925
  0
LINE
  5
56D3
330
53E2
100
AcDbEntity
  8
0
  6
Continuous
100
AcDbLine
 10
710.9168430000009
 20
407.2513890000009
 30
0.0
 11
702.7263770000009
 21
355.9106370000009
 31
0.0
  0
LINE
  5
56D4
330
53E2
100
AcDbEntity
  8
0
  6
Continuous
100
AcDbLine
 10
752.7017720000003
 20
452.4742220000007
 30
0.0
 11
803.2362179999999
 21
464.6900440000008
 31
0.0
  0
ARC
  5
56D5
330
53E2
100
AcDbEntity
  8
0
  6
Continuous
100
AcDbCircle
 10
1062.124512
 20
124.6586340000012
 30
0.0
 40
455.0
100
AcDbArc
 50
135.3544604999925
 51
139.1709976000366
  0
LINE
  5
56D6
330
53E2
100
AcDbEntity
  8
0
  6
Continuous
100
AcDbLine
 10
939.6330210000014
 20
-184.2379029999993
 30
0.0
 11
899.6786600000014
 21
-182.3276539999988
 31
0.0
  0
LINE
  5
56D7
330
53E2
100
AcDbEntity
  8
0
  6
Continuous
100
AcDbLine
 10
899.9890759999997
 20
-175.8350709999977
 30
0.0
 11
939.9434369999999
 21
-177.7453189999996
 31
0.0
  0
LWPOLYLINE
  5
56D8
330
53E2
100
AcDbEntity
  8
0
  6
Continuous
100
AcDbPolyline
 90
        5
 70
     0
 43
0.0
 10
939.5563160000001
 20
-185.8422469999986
 10
940.6239629999999
 20
-163.5115779999996
 10
900.6696020000017
 20
-161.6013299999995
 10
899.6019550000019
 20
-183.9319989999985
 10
939.5563160000001
 20
-185.8422469999986
  0
LINE
  5
56D9
330
53E2
100
AcDbEntity
  8
0
  6
Continuous
100
AcDbLine
 10
1900.120252
 20
296.8355760000013
 30
0.0
 11
1902.890112000001
 21
354.7694000000011
 31
0.0
  0
LINE
  5
56DA
330
53E2
100
AcDbEntity
  8
0
  6
Continuous
100
AcDbLine
 10
1475.514082000001
 20
-329.3576359999988
 30
0.0
 11
1483.047922
 21
-171.7813079999996
 31
0.0
  0
LINE
  5
56DB
330
53E2
100
AcDbEntity
  8
0
  6
Continuous
100
AcDbLine
 10
813.8998510000002
 20
-179.8345149999986
 30
0.0
 11
883.8199829999993
 21
-183.1774499999992
 31
0.0
  0
LINE
  5
56DC
330
53E2
100
AcDbEntity
  8
0
  6
Continuous
100
AcDbLine
 10
838.5378369999997
 20
-370.853302999999
 30
0.0
 11
1310.041729
 21
-393.3962669999992
 31
0.0
  0
LINE
  5
56DD
330
53E2
100
AcDbEntity
  8
0
  6
Continuous
100
AcDbLine
 10
1483.047922
 20
-171.7813079999996
 30
0.0
 11
1468.065042
 21
-171.0649649999977
 31
0.0
  0
LWPOLYLINE
  5
56DE
330
53E2
100
AcDbEntity
  8
0
  6
Continuous
100
AcDbPolyline
 90
        3
 70
     0
 43
0.0
 10
899.801727
 20
-183.9415499999995
 10
844.8644810000004
 20
-181.314957999999
 10
834.9760540000007
 20
-388.1392109999988
  0
LINE
  5
56DF
330
53E2
100
AcDbEntity
  8
0
  6
Continuous
100
AcDbLine
 10
929.0605169999999
 20
-179.2216159999989
 30
0.0
 11
928.7596529999991
 21
-185.5144279999986
 31
0.0
  0
LINE
  5
56E0
330
53E2
100
AcDbEntity
  8
0
  6
Continuous
100
AcDbLine
 10
910.7801900000012
 20
-184.6548159999984
 30
0.0
 11
911.0810550000005
 21
-178.3620039999987
 31
0.0
  0
LINE
  5
56E1
330
53E2
100
AcDbEntity
  8
0
  6
Continuous
100
AcDbLine
 10
899.7927410000011
 20
-184.1294969999981
 30
0.0
 11
939.7471020000011
 21
-186.0397459999985
 31
0.0
  0
LINE
  5
56E2
330
53E2
100
AcDbEntity
  8
0
  6
Continuous
100
AcDbLine
 10
940.047966
 20
-179.7469339999989
 30
0.0
 11
900.0936050000019
 21
-177.8366849999984
 31
0.0
  0
LINE
  5
56E3
330
53E2
100
AcDbEntity
  8
0
  6
Continuous
100
AcDbLine
 10
899.7825869999998
 20
-184.3418739999979
 30
0.0
 11
939.7369479999998
 21
-186.2521229999984
 31
0.0
  0
LWPOLYLINE
  5
56E4
330
53E2
100
AcDbEntity
  8
0
  6
Continuous
100
AcDbPolyline
 90
        5
 70
     0
 43
0.0
 10
899.7112610000003
 20
-185.8337279999996
 10
900.7789069999999
 20
-163.5030589999987
 10
940.7332679999999
 20
-165.4133069999989
 10
939.6656220000004
 20
-187.7439759999979
 10
899.7112610000003
 20
-185.8337279999996
  0
LINE
  5
56E5
330
53E2
100
AcDbEntity
  8
0
  6
Continuous
100
AcDbLine
 10
815.8101000000005
 20
-139.8801539999986
 30
0.0
 11
1483.847012
 21
-171.8195129999985
 31
0.0
  0
LINE
  5
56E6
330
53E2
100
AcDbEntity
  8
0
  6
Continuous
100
AcDbLine
 10
815.8101000000005
 20
-139.8801539999986
 30
0.0
 11
1485.045641999999
 21
-171.876820999998
 31
0.0
  0
LINE
  5
56E7
330
53E2
100
AcDbEntity
  8
0
  6
Continuous
100
AcDbLine
 10
810.1222350000007
 20
-258.8463499999998
 30
0.0
 11
815.8101000000005
 21
-139.8801539999986
 31
0.0
  0
LINE
  5
56E8
330
53E2
100
AcDbEntity
  8
0
  6
Continuous
100
AcDbLine
 10
810.1222350000007
 20
-258.8463499999998
 30
0.0
 11
815.8101000000005
 21
-139.8801539999986
 31
0.0
  0
LINE
  5
56E9
330
53E2
100
AcDbEntity
  8
0
  6
Continuous
100
AcDbLine
 10
1425.005852
 20
-169.0062719999987
 30
0.0
 11
823.0018850000014
 21
-140.223998999998
 31
0.0
  0
LWPOLYLINE
  5
56EA
330
53E2
100
AcDbEntity
  8
0
  6
Continuous
100
AcDbPolyline
 90
        3
 70
     0
 43
0.0
 10
815.4662550000011
 20
-147.0719389999995
 10
813.8998510000002
 20
-179.8345149999986
 10
817.0961999999999
 20
-179.987334999998
  0
LINE
  5
56EB
330
53E2
100
AcDbEntity
  8
0
  6
Continuous
100
AcDbLine
 10
839.1834010000001
 20
-140.9976499999993
 30
0.0
 11
1789.098332000001
 21
-186.4138139999995
 31
0.0
  0
LINE
  5
56EC
330
53E2
100
AcDbEntity
  8
0
  6
Continuous
100
AcDbLine
 10
-2968.744047
 20
117.1182150000022
 30
0.0
 11
-2969.040756
 21
110.8265200000005
 31
0.0
  0
LWPOLYLINE
  5
56ED
330
53E2
100
AcDbEntity
  8
0
  6
Continuous
100
AcDbPolyline
 90
        6
 70
     0
 43
0.0
 10
-2983.222683
 20
128.5272040000018
 10
-2983.519392
 20
122.2355080000016
 10
-2969.040756
 20
110.8265200000005
 10
-2874.146217999999
 20
106.3514070000019
 10
-2858.658158
 20
116.3472020000026
 10
-2858.361449
 20
122.6388970000007
  0
LWPOLYLINE
  5
56EE
330
53E2
100
AcDbEntity
  8
0
  6
Continuous
100
AcDbPolyline
 90
        6
 70
     0
 43
0.0
 10
-2982.547820999999
 20
142.837633000001
 10
-2983.222683
 20
128.5272040000018
 10
-2968.744047
 20
117.1182150000022
 10
-2873.849509
 20
112.6431030000003
 10
-2858.361449
 20
122.6388970000007
 10
-2857.690417
 20
136.8681050000013
  0
LINE
  5
56EF
330
53E2
100
AcDbEntity
  8
0
  6
Continuous
100
AcDbLine
 10
-367.8754879999997
 20
-297.3413659999987
 30
0.0
 11
506.3372460000009
 21
-297.3413659999987
 31
0.0
  0
LWPOLYLINE
  5
56F0
330
53E2
100
AcDbEntity
  8
0
  6
Continuous
100
AcDbPolyline
 90
        4
 70
     0
 43
0.0
 10
660.1245120000003
 20
729.6586340000012
 10
660.1245120000003
 20
561.6586340000012
 10
645.1245120000002
 20
546.6586340000012
 10
-2647.875488
 20
546.6586340000012
  0
LWPOLYLINE
  5
56F1
330
53E2
100
AcDbEntity
  8
0
  6
Continuous
100
AcDbPolyline
 90
        3
 70
     0
 43
0.0
 10
-2647.875488
 20
546.6586340000012
 10
-2647.875488
 20
1214.658634000001
 10
159.9441740000002
 20
1214.658634000001
  0
ARC
  5
56F2
330
53E2
100
AcDbEntity
  8
0
  6
Continuous
100
AcDbCircle
 10
273.2679449999996
 20
1184.658634000001
 30
0.0
 40
30.0
100
AcDbArc
 50
22.99999999998398
 51
90.0
  0
LINE
  5
56F3
330
53E2
100
AcDbEntity
  8
0
  6
Continuous
100
AcDbLine
 10
300.8830910000015
 20
1196.380568000002
 30
0.0
 11
491.2362190000003
 21
747.9367000000002
 31
0.0
  0
ARC
  5
56F4
330
53E2
100
AcDbEntity
  8
0
  6
Continuous
100
AcDbCircle
 10
406.8513650000004
 20
759.6586340000012
 30
0.0
 40
30.0
100
AcDbArc
 50
202.999999999984
 51
270.0
  0
ARC
  5
56F5
330
53E2
100
AcDbEntity
  8
0
  6
Continuous
100
AcDbCircle
 10
159.9441740000002
 20
1182.658634000001
 30
0.0
 40
32.0
100
AcDbArc
 50
22.99999999998398
 51
90.0
  0
ARC
  5
56F6
330
53E2
100
AcDbEntity
  8
0
  6
Continuous
100
AcDbCircle
 10
518.8513650000004
 20
759.6586340000012
 30
0.0
 40
30.0
100
AcDbArc
 50
202.999999999984
 51
270.0
  0
LINE
  5
56F7
330
53E2
100
AcDbEntity
  8
0
  6
Continuous
100
AcDbLine
 10
660.1245120000003
 20
729.6586340000012
 30
0.0
 11
406.8513650000004
 21
729.6586340000012
 31
0.0
  0
LINE
  5
56F8
330
53E2
100
AcDbEntity
  8
0
  6
Continuous
100
AcDbLine
 10
189.400329
 20
1195.162030000001
 30
0.0
 11
379.2362190000003
 21
747.9367000000002
 31
0.0
  0
LWPOLYLINE
  5
56F9
330
53E2
100
AcDbEntity
  8
0
  6
Continuous
100
AcDbPolyline
 90
        4
 70
     0
 43
0.0
 10
1276.624512
 20
729.6586340000012
 10
1276.624512
 20
756.6586340000013
 10
1272.124512
 20
756.6586340000013
 10
1272.124512
 20
729.6586340000012
  0
LWPOLYLINE
  5
56FA
330
53E2
100
AcDbEntity
  8
0
  6
Continuous
100
AcDbPolyline
 90
        3
 70
     0
 43
0.0
 10
159.9441740000002
 20
1214.658634000001
 10
345.5337100000015
 20
1214.658634000001
 10
348.1912370000009
 20
1208.386634000002
  0
LWPOLYLINE
  5
56FB
330
53E2
100
AcDbEntity
  8
0
  6
Continuous
100
AcDbPolyline
 90
        3
 70
     0
 43
0.0
 10
1272.124512
 20
786.6586340000012
 10
1272.124512
 20
1208.386634000002
 10
336.1463600000007
 20
1208.386634000002
  0
LWPOLYLINE
  5
56FC
330
53E2
100
AcDbEntity
  8
0
  6
Continuous
100
AcDbPolyline
 90
        3
 70
     0
 43
0.0
 10
1276.624512
 20
756.6586340000013
 10
1272.124512
 20
756.6586340000013
 10
1272.124512
 20
771.6586340000012
  0
LWPOLYLINE
  5
56FD
330
53E2
100
AcDbEntity
  8
0
  6
Continuous
100
AcDbPolyline
 90
        4
 70
     0
 43
0.0
 10
1276.624512
 20
886.6586340000012
 10
1276.624512
 20
1210.658634000001
 10
1272.124512
 20
1210.658634000001
 10
1272.124512
 20
771.6586340000012
  0
LWPOLYLINE
  5
56FE
330
53E2
100
AcDbEntity
  8
0
  6
Continuous
100
AcDbPolyline
 90
        4
 70
     0
 43
0.0
 10
1276.624512
 20
756.6586340000013
 10
1382.124512
 20
756.6586340000013
 10
1382.124512
 20
886.6586340000012
 10
1272.124512
 20
886.6586340000012
  0
LINE
  5
56FF
330
53E2
100
AcDbEntity
  8
0
  6
Continuous
100
AcDbLine
 10
-367.8754879999997
 20
-965.3413659999987
 30
0.0
 11
-2647.875488
 21
-965.3413659999987
 31
0.0
  0
ARC
  5
5700
330
53E2
100
AcDbEntity
  8
0
  6
Continuous
100
AcDbCircle
 10
273.2679449999996
 20
-935.3413659999986
 30
0.0
 40
30.0
100
AcDbArc
 50
270.0
 51
337.000000000016
  0
LINE
  5
5701
330
53E2
100
AcDbEntity
  8
0
  6
Continuous
100
AcDbLine
 10
300.8830910000015
 20
-947.0632999999988
 30
0.0
 11
491.2362190000003
 21
-498.6194319999985
 31
0.0
  0
ARC
  5
5702
330
53E2
100
AcDbEntity
  8
0
  6
Continuous
100
AcDbCircle
 10
406.8513650000004
 20
-510.3413659999987
 30
0.0
 40
30.0
100
AcDbArc
 50
90.0
 51
157.000000000016
  0
ARC
  5
5703
330
53E2
100
AcDbEntity
  8
0
  6
Continuous
100
AcDbCircle
 10
159.9441740000002
 20
-933.3413659999987
 30
0.0
 40
32.0
100
AcDbArc
 50
270.0
 51
337.000000000016
  0
ARC
  5
5704
330
53E2
100
AcDbEntity
  8
0
  6
Continuous
100
AcDbCircle
 10
518.8513650000004
 20
-510.3413659999987
 30
0.0
 40
30.0
100
AcDbArc
 50
90.0
 51
157.000000000016
  0
LINE
  5
5705
330
53E2
100
AcDbEntity
  8
0
  6
Continuous
100
AcDbLine
 10
581.3375490000017
 20
-480.3413659999987
 30
0.0
 11
406.8513650000004
 21
-480.3413659999987
 31
0.0
  0
LINE
  5
5706
330
53E2
100
AcDbEntity
  8
0
  6
Continuous
100
AcDbLine
 10
181.1245120000003
 20
-965.3413659999987
 30
0.0
 11
273.2679449999996
 21
-965.3413659999987
 31
0.0
  0
LINE
  5
5707
330
53E2
100
AcDbEntity
  8
0
  6
Continuous
100
AcDbLine
 10
189.400329
 20
-945.8447619999979
 30
0.0
 11
379.2362190000003
 21
-498.6194319999985
 31
0.0
  0
LINE
  5
5708
330
53E2
100
AcDbEntity
  8
0
  6
Continuous
100
AcDbLine
 10
181.1245120000003
 20
-965.3413659999987
 30
0.0
 11
-367.8754879999997
 21
-965.3413659999987
 31
0.0
  0
LINE
  5
5709
330
53E2
100
AcDbEntity
  8
0
  6
Continuous
100
AcDbLine
 10
-2647.875488
 20
-965.3413659999987
 30
0.0
 11
-2647.875488
 21
-509.3413659999987
 31
0.0
  0
LINE
  5
570A
330
53E2
100
AcDbEntity
  8
0
  6
Continuous
100
AcDbLine
 10
-2647.875488
 20
-509.3413659999987
 30
0.0
 11
-2647.875488
 21
-695.0413659999985
 31
0.0
  0
LWPOLYLINE
  5
570B
330
53E2
100
AcDbEntity
  8
0
  6
Continuous
100
AcDbPolyline
 90
        3
 70
     0
 43
0.0
 10
215.6375029999999
 20
-965.3413659999987
 10
345.5337100000015
 20
-965.3413659999987
 10
348.1912370000009
 20
-959.0693659999988
  0
LWPOLYLINE
  5
570C
330
53E2
100
AcDbEntity
  8
0
  6
Continuous
100
AcDbPolyline
 90
        3
 70
     0
 43
0.0
 10
1272.124512
 20
-572.1652329999987
 10
1272.124512
 20
-959.0693659999988
 10
336.1463600000007
 20
-959.0693659999988
  0
LWPOLYLINE
  5
570D
330
53E2
100
AcDbEntity
  8
0
  6
Continuous
100
AcDbPolyline
 90
        4
 70
     0
 43
0.0
 10
1276.624512
 20
-637.3413659999987
 10
1276.624512
 20
-961.3413659999988
 10
1272.124512
 20
-961.3413659999988
 10
1272.124512
 20
-572.1652329999987
  0
LWPOLYLINE
  5
570E
330
53E2
100
AcDbEntity
  8
0
  6
Continuous
100
AcDbPolyline
 90
        3
 70
     0
 43
0.0
 10
1382.124512
 20
-577.4244179999986
 10
1382.124512
 20
-637.3413659999987
 10
1272.124512
 20
-637.3413659999987
  0
LWPOLYLINE
  5
570F
330
53E2
100
AcDbEntity
  8
0
  6
Continuous
100
AcDbPolyline
 90
        4
 70
     0
 43
0.0
 10
1568.124512
 20
-799.8413659999987
 10
1568.124512
 20
-839.3413659999987
 10
1574.124512
 20
-839.3413659999987
 10
1574.124512
 20
-794.3119289999986
  0
LWPOLYLINE
  5
5710
330
53E2
100
AcDbEntity
  8
0
  6
Continuous
100
AcDbPolyline
 90
        4
 70
     0
 43
0.0
 10
1570.124512
 20
1049.158634000001
 10
1570.124512
 20
1088.658634000001
 10
1564.124512
 20
1088.658634000001
 10
1564.124512
 20
1043.629197
  0
LINE
  5
5711
330
53E2
100
AcDbEntity
  8
0
  6
Continuous
100
AcDbLine
 10
-2884.875488
 20
1043.516222
 30
0.0
 11
-2884.875488
 21
1101.158634000001
 31
0.0
  0
LWPOLYLINE
  5
5712
330
53E2
100
AcDbEntity
  8
0
  6
Continuous
100
AcDbPolyline
 90
        5
 70
     0
 43
0.0
 10
-2677.875488
 20
-733.3413659999987
 10
-2677.875488
 20
-717.3413659999987
 10
-3081.875488
 20
-717.3413659999987
 10
-3081.875488
 20
-733.3413659999987
 10
-2677.875488
 20
-733.3413659999987
  0
LWPOLYLINE
  5
5713
330
53E2
100
AcDbEntity
  8
0
  6
Continuous
100
AcDbPolyline
 90
        5
 70
     0
 43
0.0
 10
-2677.875488
 20
966.6586340000012
 10
-2677.875488
 20
982.6586340000012
 10
-3081.875488
 20
982.6586340000012
 10
-3081.875488
 20
966.6586340000012
 10
-2677.875488
 20
966.6586340000012
  0
LWPOLYLINE
  5
5714
330
53E2
100
AcDbEntity
  8
0
  6
Continuous
100
AcDbPolyline
 90
        5
 70
     0
 43
0.0
 10
1771.124512
 20
-733.3413659999987
 10
1771.124512
 20
-717.3413659999987
 10
1367.124512
 20
-717.3413659999987
 10
1367.124512
 20
-733.3413659999987
 10
1771.124512
 20
-733.3413659999987
  0
LWPOLYLINE
  5
5715
330
53E2
100
AcDbEntity
  8
0
  6
Continuous
100
AcDbPolyline
 90
        5
 70
     0
 43
0.0
 10
1367.124512
 20
966.6586340000012
 10
1367.124512
 20
982.6586340000012
 10
1771.124512
 20
982.6586340000012
 10
1771.124512
 20
966.6586340000012
 10
1367.124512
 20
966.6586340000012
  0
LINE
  5
5716
330
53E2
100
AcDbEntity
  8
0
  6
Continuous
100
AcDbLine
 10
1892.124512
 20
544.6586340000012
 30
0.0
 11
1892.124512
 21
709.6586340000012
 31
0.0
  0
LINE
  5
5717
330
53E2
100
AcDbEntity
  8
0
  6
Continuous
100
AcDbLine
 10
1892.124512
 20
-460.3413659999987
 30
0.0
 11
1892.124512
 21
-295.3413659999987
 31
0.0
  0
LINE
  5
5718
330
53E2
100
AcDbEntity
  8
0
  6
Continuous
100
AcDbLine
 10
1471.124512
 20
1069.658634000001
 30
0.0
 11
1471.124512
 21
1034.658634000001
 31
0.0
  0
LINE
  5
5719
330
53E2
100
AcDbEntity
  8
0
  6
Continuous
100
AcDbLine
 10
1471.124512
 20
1154.658634000001
 30
0.0
 11
1471.124512
 21
1089.658634000001
 31
0.0
  0
LINE
  5
571A
330
53E2
100
AcDbEntity
  8
0
  6
Continuous
100
AcDbLine
 10
-2977.875488
 20
1069.658634000001
 30
0.0
 11
-2977.875488
 21
1034.658634000001
 31
0.0
  0
LINE
  5
571B
330
53E2
100
AcDbEntity
  8
0
  6
Continuous
100
AcDbLine
 10
-2977.875488
 20
1154.658634000001
 30
0.0
 11
-2977.875488
 21
1089.658634000001
 31
0.0
  0
LINE
  5
571C
330
53E2
100
AcDbEntity
  8
0
  6
Continuous
100
AcDbLine
 10
1572.378392
 20
1204.658634000001
 30
0.0
 11
1521.124512
 21
1204.658634000001
 31
0.0
  0
LINE
  5
571D
330
53E2
100
AcDbEntity
  8
0
  6
Continuous
100
AcDbLine
 10
1721.124512
 20
1204.658634000001
 30
0.0
 11
1660.124512
 21
1204.658634000001
 31
0.0
  0
ARC
  5
571E
330
53E2
100
AcDbEntity
  8
0
  6
Continuous
100
AcDbCircle
 10
1580.124352000001
 20
1190.658634000001
 30
0.0
 40
16.0
100
AcDbArc
 50
90.0
 51
179.9991047999891
  0
LWPOLYLINE
  5
571F
330
53E2
100
AcDbEntity
  8
0
  6
Continuous
100
AcDbPolyline
 90
        3
 70
     0
 43
0.0
 10
1580.124352000001
 20
1206.658634000001
 10
1660.124512
 20
1206.658634000001
 10
1660.124512
 20
1200.658634000001
  0
ARC
  5
5720
330
53E2
100
AcDbEntity
  8
0
  6
Continuous
100
AcDbCircle
 10
1580.124352000001
 20
1190.658634000001
 30
0.0
 40
10.0
100
AcDbArc
 50
90.0
 51
179.9991047999891
  0
LWPOLYLINE
  5
5721
330
53E2
100
AcDbEntity
  8
0
  6
Continuous
100
AcDbPolyline
 90
        4
 70
     0
 43
0.0
 10
1570.124352000001
 20
1190.658790000001
 10
1570.123532000001
 20
1138.158634000001
 10
1564.123532000001
 20
1138.158728
 10
1564.124352000001
 20
1190.658884
  0
LINE
  5
5722
330
53E2
100
AcDbEntity
  8
0
  6
Continuous
100
AcDbLine
 10
1660.124512
 20
1200.658634000001
 30
0.0
 11
1580.124352000001
 21
1200.658634000001
 31
0.0
  0
LWPOLYLINE
  5
5723
330
53E2
100
AcDbEntity
  8
0
  6
Continuous
100
AcDbPolyline
 90
        5
 70
     0
 43
0.0
 10
1642.624512
 20
1206.658634000001
 10
1642.624512
 20
1215.658634000001
 10
1577.624512
 20
1215.658634000001
 10
1577.624512
 20
1206.658634000001
 10
1632.624512
 20
1206.658634000001
  0
LINE
  5
5724
330
53E2
100
AcDbEntity
  8
0
  6
Continuous
100
AcDbLine
 10
1637.624512
 20
1206.658634000001
 30
0.0
 11
1637.624512
 21
1215.658634000001
 31
0.0
  0
LINE
  5
5725
330
53E2
100
AcDbEntity
  8
0
  6
Continuous
100
AcDbLine
 10
1582.624512
 20
1206.658634000001
 30
0.0
 11
1582.624512
 21
1215.658634000001
 31
0.0
  0
LWPOLYLINE
  5
5726
330
53E2
100
AcDbEntity
  8
0
  6
Continuous
100
AcDbPolyline
 90
        5
 70
     0
 43
0.0
 10
1561.124512
 20
1128.158634000001
 10
1555.124512
 20
1128.158634000001
 10
1555.124512
 20
1193.158634000001
 10
1564.124512
 20
1193.158634000001
 10
1564.124512
 20
1138.158634000001
  0
ARC
  5
5727
330
53E2
100
AcDbEntity
  8
0
  6
Continuous
100
AcDbCircle
 10
1558.124672
 20
-941.3413659999987
 30
0.0
 40
16.0
100
AcDbArc
 50
270.0
 51
359.9991047999891
  0
LWPOLYLINE
  5
5728
330
53E2
100
AcDbEntity
  8
0
  6
Continuous
100
AcDbPolyline
 90
        3
 70
     0
 43
0.0
 10
1558.124672
 20
-957.3413659999987
 10
1478.124512
 20
-957.3413659999987
 10
1478.124512
 20
-951.3413659999987
  0
ARC
  5
5729
330
53E2
100
AcDbEntity
  8
0
  6
Continuous
100
AcDbCircle
 10
1558.124672
 20
-941.3413659999987
 30
0.0
 40
10.0
100
AcDbArc
 50
270.0
 51
359.9991047999891
  0
LWPOLYLINE
  5
572A
330
53E2
100
AcDbEntity
  8
0
  6
Continuous
100
AcDbPolyline
 90
        4
 70
     0
 43
0.0
 10
1568.124672
 20
-941.3415219999988
 10
1568.125491999999
 20
-888.8413659999987
 10
1574.125491999999
 20
-888.8414599999988
 10
1574.124672
 20
-941.3416159999988
  0
LINE
  5
572B
330
53E2
100
AcDbEntity
  8
0
  6
Continuous
100
AcDbLine
 10
1565.870632
 20
-955.3413659999987
 30
0.0
 11
1617.124512
 21
-955.3413659999987
 31
0.0
  0
LINE
  5
572C
330
53E2
100
AcDbEntity
  8
0
  6
Continuous
100
AcDbLine
 10
1417.124512
 20
-955.3413659999987
 30
0.0
 11
1478.124512
 21
-955.3413659999987
 31
0.0
  0
LINE
  5
572D
330
53E2
100
AcDbEntity
  8
0
  6
Continuous
100
AcDbLine
 10
1478.124512
 20
-951.3413659999987
 30
0.0
 11
1558.124672
 21
-951.3413659999987
 31
0.0
  0
LWPOLYLINE
  5
572E
330
53E2
100
AcDbEntity
  8
0
  6
Continuous
100
AcDbPolyline
 90
        5
 70
     0
 43
0.0
 10
1495.624512
 20
-957.3413659999987
 10
1495.624512
 20
-966.3413659999987
 10
1560.624512
 20
-966.3413659999987
 10
1560.624512
 20
-957.3413659999987
 10
1505.624512
 20
-957.3413659999987
  0
LINE
  5
572F
330
53E2
100
AcDbEntity
  8
0
  6
Continuous
100
AcDbLine
 10
1500.624512
 20
-957.3413659999987
 30
0.0
 11
1500.624512
 21
-966.3413659999987
 31
0.0
  0
LINE
  5
5730
330
53E2
100
AcDbEntity
  8
0
  6
Continuous
100
AcDbLine
 10
1555.624512
 20
-957.3413659999987
 30
0.0
 11
1555.624512
 21
-966.3413659999987
 31
0.0
  0
LINE
  5
5731
330
53E2
100
AcDbEntity
  8
0
  6
Continuous
100
AcDbLine
 10
1568.124512
 20
-799.3413659999987
 30
0.0
 11
1568.124512
 21
-851.8413659999987
 31
0.0
  0
LWPOLYLINE
  5
5732
330
53E2
100
AcDbEntity
  8
0
  6
Continuous
100
AcDbPolyline
 90
        4
 70
     0
 43
0.0
 10
1568.125491999999
 20
-888.8413659999987
 10
1577.124512
 20
-888.8413659999987
 10
1577.124512
 20
-851.8413659999987
 10
1568.125491999999
 20
-851.8413659999987
  0
LWPOLYLINE
  5
5733
330
53E2
100
AcDbEntity
  8
0
  6
Continuous
100
AcDbPolyline
 90
        3
 70
     0
 43
0.0
 10
1406.123532000001
 20
-851.8413659999987
 10
1397.124512
 20
-851.8413659999987
 10
1397.124512
 20
-888.8413659999987
  0
LINE
  5
5734
330
53E2
100
AcDbEntity
  8
0
  6
Continuous
100
AcDbLine
 10
1397.124512
 20
-888.8413659999987
 30
0.0
 11
1406.123532000001
 21
-888.8413659999987
 31
0.0
  0
LWPOLYLINE
  5
5735
330
53E2
100
AcDbEntity
  8
0
  6
Continuous
100
AcDbPolyline
 90
        4
 70
     0
 43
0.0
 10
1732.125491999999
 20
1101.158634000001
 10
1741.124512
 20
1101.158634000001
 10
1741.124512
 20
1138.158634000001
 10
1732.125491999999
 20
1138.158634000001
  0
LWPOLYLINE
  5
5736
330
53E2
100
AcDbEntity
  8
0
  6
Continuous
100
AcDbPolyline
 90
        3
 70
     0
 43
0.0
 10
1570.123532000001
 20
1138.158634000001
 10
1561.124512
 20
1138.158634000001
 10
1561.124512
 20
1101.158634000001
  0
LINE
  5
5737
330
53E2
100
AcDbEntity
  8
0
  6
Continuous
100
AcDbLine
 10
1561.124512
 20
1101.158634000001
 30
0.0
 11
1570.123532000001
 21
1101.158634000001
 31
0.0
  0
LINE
  5
5738
330
53E2
100
AcDbEntity
  8
0
  6
Continuous
100
AcDbLine
 10
-2884.875488
 20
1101.158634000001
 30
0.0
 11
-2884.875488
 21
1088.658634000001
 31
0.0
  0
LINE
  5
5739
330
53E2
100
AcDbEntity
  8
0
  6
Continuous
100
AcDbLine
 10
-2878.875488
 20
1088.658634000001
 30
0.0
 11
-2878.875488
 21
1122.658634000001
 31
0.0
  0
LINE
  5
573A
330
53E2
100
AcDbEntity
  8
0
  6
Continuous
100
AcDbLine
 10
-2880.875488
 20
-799.3413659999987
 30
0.0
 11
-2880.875488
 21
-851.8413659999987
 31
0.0
  0
LINE
  5
573B
330
53E2
100
AcDbEntity
  8
0
  6
Continuous
100
AcDbLine
 10
-2781.875488
 20
-820.3413659999988
 30
0.0
 11
-2781.875488
 21
-785.3413659999987
 31
0.0
  0
LINE
  5
573C
330
53E2
100
AcDbEntity
  8
0
  6
Continuous
100
AcDbLine
 10
-2781.875488
 20
-905.3413659999987
 30
0.0
 11
-2781.875488
 21
-840.3413659999987
 31
0.0
  0
LINE
  5
573D
330
53E2
100
AcDbEntity
  8
0
  6
Continuous
100
AcDbLine
 10
1667.124512
 20
-820.3413659999988
 30
0.0
 11
1667.124512
 21
-785.3413659999987
 31
0.0
  0
LINE
  5
573E
330
53E2
100
AcDbEntity
  8
0
  6
Continuous
100
AcDbLine
 10
1667.124512
 20
-905.3413659999987
 30
0.0
 11
1667.124512
 21
-840.3413659999987
 31
0.0
  0
LINE
  5
573F
330
53E2
100
AcDbEntity
  8
0
  6
Continuous
100
AcDbLine
 10
1610.124512
 20
-840.3413659999987
 30
0.0
 11
1609.124512
 21
-840.3413659999987
 31
0.0
  0
LINE
  5
5740
330
53E2
100
AcDbEntity
  8
0
  6
Continuous
100
AcDbLine
 10
1616.124512
 20
-820.3413659999988
 30
0.0
 11
1686.124512
 21
-820.3413659999988
 31
0.0
  0
LINE
  5
5741
330
53E2
100
AcDbEntity
  8
0
  6
Continuous
100
AcDbLine
 10
1686.124512
 20
-840.3413659999987
 30
0.0
 11
1616.124512
 21
-840.3413659999987
 31
0.0
  0
LWPOLYLINE
  5
5742
330
53E2
100
AcDbEntity
  8
0
  6
Continuous
100
AcDbPolyline
 90
        3
 70
     0
 43
0.0
 10
1692.124512
 20
-820.3413659999988
 10
1693.124512
 20
-820.3413659999988
 10
1693.124512
 20
-840.3413659999987
  0
LINE
  5
5743
330
53E2
100
AcDbEntity
  8
0
  6
Continuous
100
AcDbLine
 10
1608.974512
 20
-820.8413659999987
 30
0.0
 11
1609.124512
 21
-820.8413659999987
 31
0.0
  0
LINE
  5
5744
330
53E2
100
AcDbEntity
  8
0
  6
Continuous
100
AcDbLine
 10
1607.774512
 20
-840.3413659999987
 30
0.0
 11
1607.774512
 21
-820.3413659999988
 31
0.0
  0
LINE
  5
5745
330
53E2
100
AcDbEntity
  8
0
  6
Continuous
100
AcDbLine
 10
1609.124512
 20
-839.8413659999986
 30
0.0
 11
1608.974512
 21
-839.8413659999986
 31
0.0
  0
LWPOLYLINE
  5
5746
330
53E2
100
AcDbEntity
  8
0
  6
Continuous
100
AcDbPolyline
 90
        5
 70
     0
 43
0.0
 10
1607.774512
 20
-842.8913659999988
 10
1608.974512
 20
-842.8913659999988
 10
1608.974512
 20
-817.7913659999985
 10
1607.774512
 20
-817.7913659999985
 10
1607.774512
 20
-842.8913659999988
  0
LWPOLYLINE
  5
5747
330
53E2
100
AcDbEntity
  8
0
  6
Continuous
100
AcDbPolyline
 90
        5
 70
     0
 43
0.0
 10
1694.474512000001
 20
-842.8913659999988
 10
1693.274512
 20
-842.8913659999988
 10
1693.274512
 20
-817.7913659999985
 10
1694.474512000001
 20
-817.7913659999985
 10
1694.474512000001
 20
-842.8913659999988
  0
LINE
  5
5748
330
53E2
100
AcDbEntity
  8
0
  6
Continuous
100
AcDbLine
 10
1696.624512
 20
-840.3413659999987
 30
0.0
 11
1696.624512
 21
-820.3413659999988
 31
0.0
  0
LWPOLYLINE
  5
5749
330
53E2
100
AcDbEntity
  8
0
  6
Continuous
100
AcDbPolyline
 90
        6
 70
     0
 43
0.0
 10
1694.474512000001
 20
-840.3413659999987
 10
1696.624512
 20
-840.3413659999987
 10
1697.624512
 20
-839.3413659999987
 10
1697.624512
 20
-821.3413659999988
 10
1696.624512
 20
-820.3413659999988
 10
1694.474512000001
 20
-820.3413659999988
  0
LINE
  5
574A
330
53E2
100
AcDbEntity
  8
0
  6
Continuous
100
AcDbLine
 10
1693.274512
 20
-820.8413659999987
 30
0.0
 11
1693.124512
 21
-820.8413659999987
 31
0.0
  0
LINE
  5
574B
330
53E2
100
AcDbEntity
  8
0
  6
Continuous
100
AcDbLine
 10
1694.474512000001
 20
-840.3413659999987
 30
0.0
 11
1694.474512000001
 21
-820.3413659999988
 31
0.0
  0
LINE
  5
574C
330
53E2
100
AcDbEntity
  8
0
  6
Continuous
100
AcDbLine
 10
1693.124512
 20
-839.8413659999986
 30
0.0
 11
1693.274512
 21
-839.8413659999986
 31
0.0
  0
LINE
  5
574D
330
53E2
100
AcDbEntity
  8
0
  6
Continuous
100
AcDbLine
 10
1605.624512
 20
-840.3413659999987
 30
0.0
 11
1605.624512
 21
-820.3413659999988
 31
0.0
  0
LWPOLYLINE
  5
574E
330
53E2
100
AcDbEntity
  8
0
  6
Continuous
100
AcDbPolyline
 90
        6
 70
     0
 43
0.0
 10
1607.774512
 20
-840.3413659999987
 10
1605.624512
 20
-840.3413659999987
 10
1604.624512
 20
-839.3413659999987
 10
1604.624512
 20
-821.3413659999988
 10
1605.624512
 20
-820.3413659999988
 10
1607.774512
 20
-820.3413659999988
  0
LINE
  5
574F
330
53E2
100
AcDbEntity
  8
0
  6
Continuous
100
AcDbLine
 10
1693.124512
 20
-840.3413659999987
 30
0.0
 11
1692.124512
 21
-840.3413659999987
 31
0.0
  0
LINE
  5
5750
330
53E2
100
AcDbEntity
  8
0
  6
Continuous
100
AcDbLine
 10
1609.124512
 20
-820.3413659999988
 30
0.0
 11
1610.124512
 21
-820.3413659999988
 31
0.0
  0
LINE
  5
5751
330
53E2
100
AcDbEntity
  8
0
  6
Continuous
100
AcDbLine
 10
1609.124512
 20
-820.3413659999988
 30
0.0
 11
1609.124512
 21
-840.3413659999987
 31
0.0
  0
LINE
  5
5752
330
53E2
100
AcDbEntity
  8
0
  6
Continuous
100
AcDbLine
 10
1607.774512
 20
-840.3413659999987
 30
0.0
 11
1607.774512
 21
-820.3413659999988
 31
0.0
  0
LINE
  5
5753
330
53E2
100
AcDbEntity
  8
0
  6
Continuous
100
AcDbLine
 10
1528.124512
 20
1089.658634000001
 30
0.0
 11
1529.124512
 21
1089.658634000001
 31
0.0
  0
LINE
  5
5754
330
53E2
100
AcDbEntity
  8
0
  6
Continuous
100
AcDbLine
 10
1522.124512
 20
1069.658634000001
 30
0.0
 11
1452.124512
 21
1069.658634000001
 31
0.0
  0
LINE
  5
5755
330
53E2
100
AcDbEntity
  8
0
  6
Continuous
100
AcDbLine
 10
1452.124512
 20
1089.658634000001
 30
0.0
 11
1522.124512
 21
1089.658634000001
 31
0.0
  0
LWPOLYLINE
  5
5756
330
53E2
100
AcDbEntity
  8
0
  6
Continuous
100
AcDbPolyline
 90
        3
 70
     0
 43
0.0
 10
1446.124512
 20
1069.658634000001
 10
1445.124512
 20
1069.658634000001
 10
1445.124512
 20
1089.658634000001
  0
LINE
  5
5757
330
53E2
100
AcDbEntity
  8
0
  6
Continuous
100
AcDbLine
 10
1529.274512
 20
1070.158634000001
 30
0.0
 11
1529.124512
 21
1070.158634000001
 31
0.0
  0
LINE
  5
5758
330
53E2
100
AcDbEntity
  8
0
  6
Continuous
100
AcDbLine
 10
1530.474512
 20
1089.658634000001
 30
0.0
 11
1530.474512
 21
1069.658634000001
 31
0.0
  0
LINE
  5
5759
330
53E2
100
AcDbEntity
  8
0
  6
Continuous
100
AcDbLine
 10
1529.124512
 20
1089.158634000001
 30
0.0
 11
1529.274512
 21
1089.158634000001
 31
0.0
  0
LWPOLYLINE
  5
575A
330
53E2
100
AcDbEntity
  8
0
  6
Continuous
100
AcDbPolyline
 90
        5
 70
     0
 43
0.0
 10
1530.474512
 20
1092.208634
 10
1529.274512
 20
1092.208634
 10
1529.274512
 20
1067.108634000002
 10
1530.474512
 20
1067.108634000002
 10
1530.474512
 20
1092.208634
  0
LWPOLYLINE
  5
575B
330
53E2
100
AcDbEntity
  8
0
  6
Continuous
100
AcDbPolyline
 90
        5
 70
     0
 43
0.0
 10
1443.774512
 20
1092.208634
 10
1444.974512
 20
1092.208634
 10
1444.974512
 20
1067.108634000002
 10
1443.774512
 20
1067.108634000002
 10
1443.774512
 20
1092.208634
  0
LINE
  5
575C
330
53E2
100
AcDbEntity
  8
0
  6
Continuous
100
AcDbLine
 10
1441.624512
 20
1089.658634000001
 30
0.0
 11
1441.624512
 21
1069.658634000001
 31
0.0
  0
LWPOLYLINE
  5
575D
330
53E2
100
AcDbEntity
  8
0
  6
Continuous
100
AcDbPolyline
 90
        6
 70
     0
 43
0.0
 10
1443.774512
 20
1089.658634000001
 10
1441.624512
 20
1089.658634000001
 10
1440.624512
 20
1088.658634000001
 10
1440.624512
 20
1070.658634000001
 10
1441.624512
 20
1069.658634000001
 10
1443.774512
 20
1069.658634000001
  0
LINE
  5
575E
330
53E2
100
AcDbEntity
  8
0
  6
Continuous
100
AcDbLine
 10
1444.974512
 20
1070.158634000001
 30
0.0
 11
1445.124512
 21
1070.158634000001
 31
0.0
  0
LINE
  5
575F
330
53E2
100
AcDbEntity
  8
0
  6
Continuous
100
AcDbLine
 10
1443.774512
 20
1089.658634000001
 30
0.0
 11
1443.774512
 21
1069.658634000001
 31
0.0
  0
LINE
  5
5760
330
53E2
100
AcDbEntity
  8
0
  6
Continuous
100
AcDbLine
 10
1445.124512
 20
1089.158634000001
 30
0.0
 11
1444.974512
 21
1089.158634000001
 31
0.0
  0
LINE
  5
5761
330
53E2
100
AcDbEntity
  8
0
  6
Continuous
100
AcDbLine
 10
1532.624512
 20
1089.658634000001
 30
0.0
 11
1532.624512
 21
1069.658634000001
 31
0.0
  0
LWPOLYLINE
  5
5762
330
53E2
100
AcDbEntity
  8
0
  6
Continuous
100
AcDbPolyline
 90
        6
 70
     0
 43
0.0
 10
1530.474512
 20
1089.658634000001
 10
1532.624512
 20
1089.658634000001
 10
1533.624512
 20
1088.658634000001
 10
1533.624512
 20
1070.658634000001
 10
1532.624512
 20
1069.658634000001
 10
1530.474512
 20
1069.658634000001
  0
LINE
  5
5763
330
53E2
100
AcDbEntity
  8
0
  6
Continuous
100
AcDbLine
 10
1445.124512
 20
1089.658634000001
 30
0.0
 11
1446.124512
 21
1089.658634000001
 31
0.0
  0
LINE
  5
5764
330
53E2
100
AcDbEntity
  8
0
  6
Continuous
100
AcDbLine
 10
1529.124512
 20
1069.658634000001
 30
0.0
 11
1528.124512
 21
1069.658634000001
 31
0.0
  0
LINE
  5
5765
330
53E2
100
AcDbEntity
  8
0
  6
Continuous
100
AcDbLine
 10
1529.124512
 20
1069.658634000001
 30
0.0
 11
1529.124512
 21
1089.658634000001
 31
0.0
  0
LINE
  5
5766
330
53E2
100
AcDbEntity
  8
0
  6
Continuous
100
AcDbLine
 10
1530.474512
 20
1089.658634000001
 30
0.0
 11
1530.474512
 21
1069.658634000001
 31
0.0
  0
LINE
  5
5767
330
53E2
100
AcDbEntity
  8
0
  6
Continuous
100
AcDbLine
 10
-2920.875488
 20
1089.658634000001
 30
0.0
 11
-2919.875488
 21
1089.658634000001
 31
0.0
  0
LINE
  5
5768
330
53E2
100
AcDbEntity
  8
0
  6
Continuous
100
AcDbLine
 10
-2926.875488
 20
1069.658634000001
 30
0.0
 11
-2996.875488
 21
1069.658634000001
 31
0.0
  0
LINE
  5
5769
330
53E2
100
AcDbEntity
  8
0
  6
Continuous
100
AcDbLine
 10
-2996.875488
 20
1089.658634000001
 30
0.0
 11
-2926.875488
 21
1089.658634000001
 31
0.0
  0
LWPOLYLINE
  5
576A
330
53E2
100
AcDbEntity
  8
0
  6
Continuous
100
AcDbPolyline
 90
        3
 70
     0
 43
0.0
 10
-3002.875488
 20
1069.658634000001
 10
-3003.875488
 20
1069.658634000001
 10
-3003.875488
 20
1089.658634000001
  0
LINE
  5
576B
330
53E2
100
AcDbEntity
  8
0
  6
Continuous
100
AcDbLine
 10
-2919.725488
 20
1070.158634000001
 30
0.0
 11
-2919.875488
 21
1070.158634000001
 31
0.0
  0
LINE
  5
576C
330
53E2
100
AcDbEntity
  8
0
  6
Continuous
100
AcDbLine
 10
-2918.525488
 20
1089.658634000001
 30
0.0
 11
-2918.525488
 21
1069.658634000001
 31
0.0
  0
LINE
  5
576D
330
53E2
100
AcDbEntity
  8
0
  6
Continuous
100
AcDbLine
 10
-2919.875488
 20
1089.158634000001
 30
0.0
 11
-2919.725488
 21
1089.158634000001
 31
0.0
  0
LWPOLYLINE
  5
576E
330
53E2
100
AcDbEntity
  8
0
  6
Continuous
100
AcDbPolyline
 90
        5
 70
     0
 43
0.0
 10
-2918.525488
 20
1092.208634
 10
-2919.725488
 20
1092.208634
 10
-2919.725488
 20
1067.108634000002
 10
-2918.525488
 20
1067.108634000002
 10
-2918.525488
 20
1092.208634
  0
LWPOLYLINE
  5
576F
330
53E2
100
AcDbEntity
  8
0
  6
Continuous
100
AcDbPolyline
 90
        5
 70
     0
 43
0.0
 10
-3005.225488
 20
1092.208634
 10
-3004.025487999999
 20
1092.208634
 10
-3004.025487999999
 20
1067.108634000002
 10
-3005.225488
 20
1067.108634000002
 10
-3005.225488
 20
1092.208634
  0
LINE
  5
5770
330
53E2
100
AcDbEntity
  8
0
  6
Continuous
100
AcDbLine
 10
-3007.375488
 20
1089.658634000001
 30
0.0
 11
-3007.375488
 21
1069.658634000001
 31
0.0
  0
LWPOLYLINE
  5
5771
330
53E2
100
AcDbEntity
  8
0
  6
Continuous
100
AcDbPolyline
 90
        6
 70
     0
 43
0.0
 10
-3005.225488
 20
1089.658634000001
 10
-3007.375488
 20
1089.658634000001
 10
-3008.375488
 20
1088.658634000001
 10
-3008.375488
 20
1070.658634000001
 10
-3007.375488
 20
1069.658634000001
 10
-3005.225488
 20
1069.658634000001
  0
LINE
  5
5772
330
53E2
100
AcDbEntity
  8
0
  6
Continuous
100
AcDbLine
 10
-3004.025487999999
 20
1070.158634000001
 30
0.0
 11
-3003.875488
 21
1070.158634000001
 31
0.0
  0
LINE
  5
5773
330
53E2
100
AcDbEntity
  8
0
  6
Continuous
100
AcDbLine
 10
-3005.225488
 20
1089.658634000001
 30
0.0
 11
-3005.225488
 21
1069.658634000001
 31
0.0
  0
LINE
  5
5774
330
53E2
100
AcDbEntity
  8
0
  6
Continuous
100
AcDbLine
 10
-3003.875488
 20
1089.158634000001
 30
0.0
 11
-3004.025487999999
 21
1089.158634000001
 31
0.0
  0
LINE
  5
5775
330
53E2
100
AcDbEntity
  8
0
  6
Continuous
100
AcDbLine
 10
-2916.375488
 20
1089.658634000001
 30
0.0
 11
-2916.375488
 21
1069.658634000001
 31
0.0
  0
LWPOLYLINE
  5
5776
330
53E2
100
AcDbEntity
  8
0
  6
Continuous
100
AcDbPolyline
 90
        6
 70
     0
 43
0.0
 10
-2918.525488
 20
1089.658634000001
 10
-2916.375488
 20
1089.658634000001
 10
-2915.375488
 20
1088.658634000001
 10
-2915.375488
 20
1070.658634000001
 10
-2916.375488
 20
1069.658634000001
 10
-2918.525488
 20
1069.658634000001
  0
LINE
  5
5777
330
53E2
100
AcDbEntity
  8
0
  6
Continuous
100
AcDbLine
 10
-3003.875488
 20
1089.658634000001
 30
0.0
 11
-3002.875488
 21
1089.658634000001
 31
0.0
  0
LINE
  5
5778
330
53E2
100
AcDbEntity
  8
0
  6
Continuous
100
AcDbLine
 10
-2919.875488
 20
1069.658634000001
 30
0.0
 11
-2920.875488
 21
1069.658634000001
 31
0.0
  0
LINE
  5
5779
330
53E2
100
AcDbEntity
  8
0
  6
Continuous
100
AcDbLine
 10
-2919.875488
 20
1069.658634000001
 30
0.0
 11
-2919.875488
 21
1089.658634000001
 31
0.0
  0
LINE
  5
577A
330
53E2
100
AcDbEntity
  8
0
  6
Continuous
100
AcDbLine
 10
-2918.525488
 20
1089.658634000001
 30
0.0
 11
-2918.525488
 21
1069.658634000001
 31
0.0
  0
LWPOLYLINE
  5
577B
330
53E2
100
AcDbEntity
  8
0
  6
Continuous
100
AcDbPolyline
 90
        4
 70
     0
 43
0.0
 10
-2716.874510999999
 20
1101.158634000001
 10
-2707.875488
 20
1101.158634000001
 10
-2707.875488
 20
1138.158634000001
 10
-2716.874510999999
 20
1138.158634000001
  0
LWPOLYLINE
  5
577C
330
53E2
100
AcDbEntity
  8
0
  6
Continuous
100
AcDbPolyline
 90
        3
 70
     0
 43
0.0
 10
-2878.876465000001
 20
1138.158634000001
 10
-2887.875488
 20
1138.158634000001
 10
-2887.875488
 20
1101.158634000001
  0
LINE
  5
577D
330
53E2
100
AcDbEntity
  8
0
  6
Continuous
100
AcDbLine
 10
-2887.875488
 20
1101.158634000001
 30
0.0
 11
-2878.876465000001
 21
1101.158634000001
 31
0.0
  0
LINE
  5
577E
330
53E2
100
AcDbEntity
  8
0
  6
Continuous
100
AcDbLine
 10
1771.124512
 20
1034.658634000001
 30
0.0
 11
1771.124512
 21
1154.658634000001
 31
0.0
  0
ARC
  5
577F
330
53E2
100
AcDbEntity
  8
0
  6
Continuous
100
AcDbCircle
 10
1417.124512
 20
-785.3413659999987
 30
0.0
 40
50.0
100
AcDbArc
 50
107.4576030999709
 51
180.0
  0
ARC
  5
5780
330
53E2
100
AcDbEntity
  8
0
  6
Continuous
100
AcDbCircle
 10
1721.124512
 20
1034.658634000001
 30
0.0
 40
50.0
100
AcDbArc
 50
287.4576030999709
 51
0.0
  0
LWPOLYLINE
  5
5781
330
53E2
100
AcDbEntity
  8
0
  6
Continuous
100
AcDbPolyline
 90
        4
 70
     0
 43
0.0
 10
1728.624512
 20
989.6586340000013
 10
1728.624512
 20
1038.658634000001
 10
1573.624512
 20
1038.658634000001
 10
1573.624512
 20
989.6586340000013
  0
LINE
  5
5782
330
53E2
100
AcDbEntity
  8
0
  6
Continuous
100
AcDbLine
 10
1582.624512
 20
1038.658634000001
 30
0.0
 11
1582.624512
 21
989.6586340000013
 31
0.0
  0
LINE
  5
5783
330
53E2
100
AcDbEntity
  8
0
  6
Continuous
100
AcDbLine
 10
1719.624512
 20
1038.658634000001
 30
0.0
 11
1719.624512
 21
989.6586340000013
 31
0.0
  0
ARC
  5
5784
330
53E2
100
AcDbEntity
  8
0
  6
Continuous
100
AcDbCircle
 10
1521.124512
 20
1154.658634000001
 30
0.0
 40
50.0
100
AcDbArc
 50
90.0
 51
180.0
  0
ARC
  5
5785
330
53E2
100
AcDbEntity
  8
0
  6
Continuous
100
AcDbCircle
 10
1521.124512
 20
1034.658634000001
 30
0.0
 40
50.0
100
AcDbArc
 50
180.0
 51
244.1580672000163
  0
ARC
  5
5786
330
53E2
100
AcDbEntity
  8
0
  6
Continuous
100
AcDbCircle
 10
1721.124512
 20
1154.658634000001
 30
0.0
 40
50.0
100
AcDbArc
 50
0.0
 51
90.0
  0
LINE
  5
5787
330
53E2
100
AcDbEntity
  8
0
  6
Continuous
100
AcDbLine
 10
1570.124512
 20
1043.629197
 30
0.0
 11
1570.124512
 21
1048.658634000001
 31
0.0
  0
LINE
  5
5788
330
53E2
100
AcDbEntity
  8
0
  6
Continuous
100
AcDbLine
 10
1567.639232000001
 20
1035.143915000002
 30
0.0
 11
1573.624512
 21
1029.158634000001
 31
0.0
  0
LINE
  5
5789
330
53E2
100
AcDbEntity
  8
0
  6
Continuous
100
AcDbLine
 10
1573.624512
 20
1037.643915000002
 30
0.0
 11
1571.881872
 21
1039.386556000001
 31
0.0
  0
ARC
  5
578A
330
53E2
100
AcDbEntity
  8
0
  6
Continuous
100
AcDbCircle
 10
1576.124512
 20
1043.629197
 30
0.0
 40
12.0
100
AcDbArc
 50
180.0
 51
225.0
  0
ARC
  5
578B
330
53E2
100
AcDbEntity
  8
0
  6
Continuous
100
AcDbCircle
 10
1576.124512
 20
1043.629197
 30
0.0
 40
6.0
100
AcDbArc
 50
180.0
 51
225.0
  0
LINE
  5
578C
330
53E2
100
AcDbEntity
  8
0
  6
Continuous
100
AcDbLine
 10
1728.624512
 20
1037.643915000002
 30
0.0
 11
1730.367152000001
 21
1039.386556000001
 31
0.0
  0
LWPOLYLINE
  5
578D
330
53E2
100
AcDbEntity
  8
0
  6
Continuous
100
AcDbPolyline
 90
        4
 70
     0
 43
0.0
 10
1732.124512
 20
1049.158634000001
 10
1732.124512
 20
1088.658634000001
 10
1738.124512
 20
1088.658634000001
 10
1738.124512
 20
1043.629197
  0
ARC
  5
578E
330
53E2
100
AcDbEntity
  8
0
  6
Continuous
100
AcDbCircle
 10
1726.124512
 20
1043.629197
 30
0.0
 40
12.0
100
AcDbArc
 50
315.0
 51
0.0
  0
LINE
  5
578F
330
53E2
100
AcDbEntity
  8
0
  6
Continuous
100
AcDbLine
 10
1734.609791999999
 20
1035.143915000002
 30
0.0
 11
1728.624512
 21
1029.158634000001
 31
0.0
  0
ARC
  5
5790
330
53E2
100
AcDbEntity
  8
0
  6
Continuous
100
AcDbCircle
 10
1726.124512
 20
1043.629197
 30
0.0
 40
6.0
100
AcDbArc
 50
315.0
 51
0.0
  0
LINE
  5
5791
330
53E2
100
AcDbEntity
  8
0
  6
Continuous
100
AcDbLine
 10
1732.124512
 20
1043.629197
 30
0.0
 11
1732.124512
 21
1048.658634000001
 31
0.0
  0
LINE
  5
5792
330
53E2
100
AcDbEntity
  8
0
  6
Continuous
100
AcDbLine
 10
1732.124512
 20
1048.658634000001
 30
0.0
 11
1732.124512
 21
1047.800770000002
 31
0.0
  0
LINE
  5
5793
330
53E2
100
AcDbEntity
  8
0
  6
Continuous
100
AcDbLine
 10
1580.624512
 20
1038.658634000001
 30
0.0
 11
1721.624512
 21
1038.658634000001
 31
0.0
  0
ARC
  5
5794
330
53E2
100
AcDbEntity
  8
0
  6
Continuous
100
AcDbCircle
 10
1721.624512
 20
1049.158634000001
 30
0.0
 40
10.5
100
AcDbArc
 50
270.0
 51
0.0
  0
ARC
  5
5795
330
53E2
100
AcDbEntity
  8
0
  6
Continuous
100
AcDbCircle
 10
1721.624512
 20
1190.158634000001
 30
0.0
 40
10.5
100
AcDbArc
 50
0.0
 51
90.0
  0
ARC
  5
5796
330
53E2
100
AcDbEntity
  8
0
  6
Continuous
100
AcDbCircle
 10
1673.624512
 20
1003.658634000001
 30
0.0
 40
10.0
100
AcDbArc
 50
270.0
 51
0.0
  0
LINE
  5
5797
330
53E2
100
AcDbEntity
  8
0
  6
Continuous
100
AcDbLine
 10
1673.624512
 20
993.6586340000012
 30
0.0
 11
1628.624512
 21
993.6586340000012
 31
0.0
  0
ARC
  5
5798
330
53E2
100
AcDbEntity
  8
0
  6
Continuous
100
AcDbCircle
 10
1628.624512
 20
1003.658634000001
 30
0.0
 40
10.0
100
AcDbArc
 50
180.0
 51
270.0
  0
LINE
  5
5799
330
53E2
100
AcDbEntity
  8
0
  6
Continuous
100
AcDbLine
 10
1618.624512
 20
1003.658634000001
 30
0.0
 11
1618.624512
 21
1038.658634000001
 31
0.0
  0
LINE
  5
579A
330
53E2
100
AcDbEntity
  8
0
  6
Continuous
100
AcDbLine
 10
1683.624512
 20
1038.658634000001
 30
0.0
 11
1683.624512
 21
1003.658634000001
 31
0.0
  0
LINE
  5
579B
330
53E2
100
AcDbEntity
  8
0
  6
Continuous
100
AcDbLine
 10
1732.124512
 20
1093.658634000001
 30
0.0
 11
1732.124512
 21
1064.658634000001
 31
0.0
  0
LINE
  5
579C
330
53E2
100
AcDbEntity
  8
0
  6
Continuous
100
AcDbLine
 10
1570.124512
 20
1190.158634000001
 30
0.0
 11
1570.124512
 21
1064.658634000001
 31
0.0
  0
LINE
  5
579D
330
53E2
100
AcDbEntity
  8
0
  6
Continuous
100
AcDbLine
 10
1721.624512
 20
1200.658634000001
 30
0.0
 11
1580.624512
 21
1200.658634000001
 31
0.0
  0
LINE
  5
579E
330
53E2
100
AcDbEntity
  8
0
  6
Continuous
100
AcDbLine
 10
1732.124512
 20
1064.658634000001
 30
0.0
 11
1732.124512
 21
1190.158634000001
 31
0.0
  0
LWPOLYLINE
  5
579F
330
53E2
100
AcDbEntity
  8
0
  6
Continuous
100
AcDbPolyline
 90
        4
 70
     0
 43
0.0
 10
1409.624512
 20
-740.3413659999987
 10
1409.624512
 20
-789.3413659999987
 10
1564.624512
 20
-789.3413659999987
 10
1564.624512
 20
-740.3413659999987
  0
LINE
  5
57A0
330
53E2
100
AcDbEntity
  8
0
  6
Continuous
100
AcDbLine
 10
1555.624512
 20
-789.3413659999987
 30
0.0
 11
1555.624512
 21
-740.3413659999987
 31
0.0
  0
LINE
  5
57A1
330
53E2
100
AcDbEntity
  8
0
  6
Continuous
100
AcDbLine
 10
1418.624512
 20
-789.3413659999987
 30
0.0
 11
1418.624512
 21
-740.3413659999987
 31
0.0
  0
ARC
  5
57A2
330
53E2
100
AcDbEntity
  8
0
  6
Continuous
100
AcDbCircle
 10
1617.124512
 20
-905.3413659999987
 30
0.0
 40
50.0
100
AcDbArc
 50
270.0
 51
0.0
  0
ARC
  5
57A3
330
53E2
100
AcDbEntity
  8
0
  6
Continuous
100
AcDbCircle
 10
1617.124512
 20
-785.3413659999987
 30
0.0
 40
50.0
100
AcDbArc
 50
0.0
 51
64.15806723998601
  0
LINE
  5
57A4
330
53E2
100
AcDbEntity
  8
0
  6
Continuous
100
AcDbLine
 10
1367.124512
 20
-785.3413659999987
 30
0.0
 11
1367.124512
 21
-905.3413659999987
 31
0.0
  0
ARC
  5
57A5
330
53E2
100
AcDbEntity
  8
0
  6
Continuous
100
AcDbCircle
 10
1417.124512
 20
-905.3413659999987
 30
0.0
 40
50.0
100
AcDbArc
 50
180.0
 51
270.0
  0
LINE
  5
57A6
330
53E2
100
AcDbEntity
  8
0
  6
Continuous
100
AcDbLine
 10
1568.124512
 20
-794.3119289999986
 30
0.0
 11
1568.124512
 21
-799.3413659999987
 31
0.0
  0
LINE
  5
57A7
330
53E2
100
AcDbEntity
  8
0
  6
Continuous
100
AcDbLine
 10
1570.609791999999
 20
-785.8266469999989
 30
0.0
 11
1564.624512
 21
-779.8413659999988
 31
0.0
  0
LINE
  5
57A8
330
53E2
100
AcDbEntity
  8
0
  6
Continuous
100
AcDbLine
 10
1564.624512
 20
-788.3266469999989
 30
0.0
 11
1566.367152000001
 21
-790.0692879999987
 31
0.0
  0
ARC
  5
57A9
330
53E2
100
AcDbEntity
  8
0
  6
Continuous
100
AcDbCircle
 10
1562.124512
 20
-794.3119289999986
 30
0.0
 40
12.0
100
AcDbArc
 50
0.0
 51
45.0
  0
ARC
  5
57AA
330
53E2
100
AcDbEntity
  8
0
  6
Continuous
100
AcDbCircle
 10
1562.124512
 20
-794.3119289999986
 30
0.0
 40
6.0
100
AcDbArc
 50
0.0
 51
45.0
  0
LINE
  5
57AB
330
53E2
100
AcDbEntity
  8
0
  6
Continuous
100
AcDbLine
 10
1409.624512
 20
-788.3266469999989
 30
0.0
 11
1407.881872
 21
-790.0692879999987
 31
0.0
  0
LWPOLYLINE
  5
57AC
330
53E2
100
AcDbEntity
  8
0
  6
Continuous
100
AcDbPolyline
 90
        4
 70
     0
 43
0.0
 10
1406.124512
 20
-799.8413659999987
 10
1406.124512
 20
-839.3413659999987
 10
1400.124512
 20
-839.3413659999987
 10
1400.124512
 20
-794.3119289999986
  0
ARC
  5
57AD
330
53E2
100
AcDbEntity
  8
0
  6
Continuous
100
AcDbCircle
 10
1412.124512
 20
-794.3119289999986
 30
0.0
 40
12.0
100
AcDbArc
 50
135.0
 51
180.0
  0
LINE
  5
57AE
330
53E2
100
AcDbEntity
  8
0
  6
Continuous
100
AcDbLine
 10
1403.639232000001
 20
-785.8266469999989
 30
0.0
 11
1409.624512
 21
-779.8413659999988
 31
0.0
  0
ARC
  5
57AF
330
53E2
100
AcDbEntity
  8
0
  6
Continuous
100
AcDbCircle
 10
1412.124512
 20
-794.3119289999986
 30
0.0
 40
6.0
100
AcDbArc
 50
135.0
 51
180.0
  0
LINE
  5
57B0
330
53E2
100
AcDbEntity
  8
0
  6
Continuous
100
AcDbLine
 10
1406.124512
 20
-794.3119289999986
 30
0.0
 11
1406.124512
 21
-799.3413659999987
 31
0.0
  0
LINE
  5
57B1
330
53E2
100
AcDbEntity
  8
0
  6
Continuous
100
AcDbLine
 10
1406.124512
 20
-799.3413659999987
 30
0.0
 11
1406.124512
 21
-798.4835019999991
 31
0.0
  0
LINE
  5
57B2
330
53E2
100
AcDbEntity
  8
0
  6
Continuous
100
AcDbLine
 10
1557.624512
 20
-789.3413659999987
 30
0.0
 11
1416.624512
 21
-789.3413659999987
 31
0.0
  0
ARC
  5
57B3
330
53E2
100
AcDbEntity
  8
0
  6
Continuous
100
AcDbCircle
 10
1416.624512
 20
-799.8413659999987
 30
0.0
 40
10.5
100
AcDbArc
 50
90.0
 51
180.0
  0
ARC
  5
57B4
330
53E2
100
AcDbEntity
  8
0
  6
Continuous
100
AcDbCircle
 10
1416.624512
 20
-940.8413659999988
 30
0.0
 40
10.5
100
AcDbArc
 50
180.0
 51
270.0
  0
ARC
  5
57B5
330
53E2
100
AcDbEntity
  8
0
  6
Continuous
100
AcDbCircle
 10
1557.624512
 20
-940.8413659999988
 30
0.0
 40
10.5
100
AcDbArc
 50
270.0
 51
0.0
  0
ARC
  5
57B6
330
53E2
100
AcDbEntity
  8
0
  6
Continuous
100
AcDbCircle
 10
1557.624512
 20
-799.8413659999987
 30
0.0
 40
10.5
100
AcDbArc
 50
0.0
 51
90.0
  0
ARC
  5
57B7
330
53E2
100
AcDbEntity
  8
0
  6
Continuous
100
AcDbCircle
 10
1464.624512
 20
-754.3413659999987
 30
0.0
 40
10.0
100
AcDbArc
 50
90.0
 51
180.0
  0
LINE
  5
57B8
330
53E2
100
AcDbEntity
  8
0
  6
Continuous
100
AcDbLine
 10
1464.624512
 20
-744.3413659999987
 30
0.0
 11
1509.624512
 21
-744.3413659999987
 31
0.0
  0
ARC
  5
57B9
330
53E2
100
AcDbEntity
  8
0
  6
Continuous
100
AcDbCircle
 10
1509.624512
 20
-754.3413659999987
 30
0.0
 40
10.0
100
AcDbArc
 50
0.0
 51
90.0
  0
LINE
  5
57BA
330
53E2
100
AcDbEntity
  8
0
  6
Continuous
100
AcDbLine
 10
1519.624512
 20
-754.3413659999987
 30
0.0
 11
1519.624512
 21
-789.3413659999987
 31
0.0
  0
LINE
  5
57BB
330
53E2
100
AcDbEntity
  8
0
  6
Continuous
100
AcDbLine
 10
1454.624512
 20
-789.3413659999987
 30
0.0
 11
1454.624512
 21
-754.3413659999987
 31
0.0
  0
LINE
  5
57BC
330
53E2
100
AcDbEntity
  8
0
  6
Continuous
100
AcDbLine
 10
1406.124512
 20
-844.3413659999986
 30
0.0
 11
1406.124512
 21
-815.3413659999987
 31
0.0
  0
LINE
  5
57BD
330
53E2
100
AcDbEntity
  8
0
  6
Continuous
100
AcDbLine
 10
1568.124512
 20
-940.8413659999988
 30
0.0
 11
1568.124512
 21
-815.3413659999987
 31
0.0
  0
LINE
  5
57BE
330
53E2
100
AcDbEntity
  8
0
  6
Continuous
100
AcDbLine
 10
1416.624512
 20
-951.3413659999987
 30
0.0
 11
1557.624512
 21
-951.3413659999987
 31
0.0
  0
LINE
  5
57BF
330
53E2
100
AcDbEntity
  8
0
  6
Continuous
100
AcDbLine
 10
1406.124512
 20
-815.3413659999987
 30
0.0
 11
1406.124512
 21
-940.8413659999988
 31
0.0
  0
ARC
  5
57C0
330
53E2
100
AcDbEntity
  8
0
  6
Continuous
100
AcDbCircle
 10
-3031.875488
 20
-785.3413659999987
 30
0.0
 40
50.0
100
AcDbArc
 50
107.4576030999709
 51
111.100196
  0
ARC
  5
57C1
330
53E2
100
AcDbEntity
  8
0
  6
Continuous
100
AcDbCircle
 10
-2727.875488
 20
1034.658634000001
 30
0.0
 40
50.0
100
AcDbArc
 50
287.4576030999709
 51
0.0
  0
LWPOLYLINE
  5
57C2
330
53E2
100
AcDbEntity
  8
0
  6
Continuous
100
AcDbPolyline
 90
        4
 70
     0
 43
0.0
 10
-2720.375488
 20
989.6586340000013
 10
-2720.375488
 20
1038.658634000001
 10
-2875.375488
 20
1038.658634000001
 10
-2875.375488
 20
989.6586340000013
  0
LINE
  5
57C3
330
53E2
100
AcDbEntity
  8
0
  6
Continuous
100
AcDbLine
 10
-2729.375488
 20
1038.658634000001
 30
0.0
 11
-2729.375488
 21
989.6586340000013
 31
0.0
  0
ARC
  5
57C4
330
53E2
100
AcDbEntity
  8
0
  6
Continuous
100
AcDbCircle
 10
-2927.875488
 20
1154.658634000001
 30
0.0
 40
50.0
100
AcDbArc
 50
90.0
 51
180.0
  0
ARC
  5
57C5
330
53E2
100
AcDbEntity
  8
0
  6
Continuous
100
AcDbCircle
 10
-2927.875488
 20
1034.658634000001
 30
0.0
 40
50.0
100
AcDbArc
 50
180.0
 51
244.1580672000163
  0
LINE
  5
57C6
330
53E2
100
AcDbEntity
  8
0
  6
Continuous
100
AcDbLine
 10
-2677.875488
 20
1034.658634000001
 30
0.0
 11
-2677.875488
 21
1154.658634000001
 31
0.0
  0
ARC
  5
57C7
330
53E2
100
AcDbEntity
  8
0
  6
Continuous
100
AcDbCircle
 10
-2727.875488
 20
1154.658634000001
 30
0.0
 40
50.0
100
AcDbArc
 50
0.0
 51
90.0
  0
LINE
  5
57C8
330
53E2
100
AcDbEntity
  8
0
  6
Continuous
100
AcDbLine
 10
-2727.875488
 20
1204.658634000001
 30
0.0
 11
-2927.875488
 21
1204.658634000001
 31
0.0
  0
LINE
  5
57C9
330
53E2
100
AcDbEntity
  8
0
  6
Continuous
100
AcDbLine
 10
-2878.875488
 20
1043.629197
 30
0.0
 11
-2878.875488
 21
1048.658634000001
 31
0.0
  0
LINE
  5
57CA
330
53E2
100
AcDbEntity
  8
0
  6
Continuous
100
AcDbLine
 10
-2881.360769
 20
1035.143915000002
 30
0.0
 11
-2875.375488
 21
1029.158634000001
 31
0.0
  0
LINE
  5
57CB
330
53E2
100
AcDbEntity
  8
0
  6
Continuous
100
AcDbLine
 10
-2875.375488
 20
1037.643915000002
 30
0.0
 11
-2877.118128999999
 21
1039.386556000001
 31
0.0
  0
ARC
  5
57CC
330
53E2
100
AcDbEntity
  8
0
  6
Continuous
100
AcDbCircle
 10
-2872.875488
 20
1043.629197
 30
0.0
 40
12.0
100
AcDbArc
 50
180.0
 51
225.0
  0
ARC
  5
57CD
330
53E2
100
AcDbEntity
  8
0
  6
Continuous
100
AcDbCircle
 10
-2872.875488
 20
1043.629197
 30
0.0
 40
6.0
100
AcDbArc
 50
180.0
 51
225.0
  0
LINE
  5
57CE
330
53E2
100
AcDbEntity
  8
0
  6
Continuous
100
AcDbLine
 10
-2720.375488
 20
1037.643915000002
 30
0.0
 11
-2718.632847
 21
1039.386556000001
 31
0.0
  0
LWPOLYLINE
  5
57CF
330
53E2
100
AcDbEntity
  8
0
  6
Continuous
100
AcDbPolyline
 90
        4
 70
     0
 43
0.0
 10
-2716.875488
 20
1049.158634000001
 10
-2716.875488
 20
1088.658634000001
 10
-2710.875488
 20
1088.658634000001
 10
-2710.875488
 20
1043.629197
  0
ARC
  5
57D0
330
53E2
100
AcDbEntity
  8
0
  6
Continuous
100
AcDbCircle
 10
-2722.875488
 20
1043.629197
 30
0.0
 40
12.0
100
AcDbArc
 50
315.0
 51
0.0
  0
LINE
  5
57D1
330
53E2
100
AcDbEntity
  8
0
  6
Continuous
100
AcDbLine
 10
-2714.390207
 20
1035.143915000002
 30
0.0
 11
-2720.375488
 21
1029.158634000001
 31
0.0
  0
ARC
  5
57D2
330
53E2
100
AcDbEntity
  8
0
  6
Continuous
100
AcDbCircle
 10
-2722.875488
 20
1043.629197
 30
0.0
 40
6.0
100
AcDbArc
 50
315.0
 51
0.0
  0
LINE
  5
57D3
330
53E2
100
AcDbEntity
  8
0
  6
Continuous
100
AcDbLine
 10
-2716.875488
 20
1043.629197
 30
0.0
 11
-2716.875488
 21
1048.658634000001
 31
0.0
  0
LINE
  5
57D4
330
53E2
100
AcDbEntity
  8
0
  6
Continuous
100
AcDbLine
 10
-2716.875488
 20
1048.658634000001
 30
0.0
 11
-2716.875488
 21
1047.800770000002
 31
0.0
  0
LINE
  5
57D5
330
53E2
100
AcDbEntity
  8
0
  6
Continuous
100
AcDbLine
 10
-2868.375488
 20
1038.658634000001
 30
0.0
 11
-2727.375488
 21
1038.658634000001
 31
0.0
  0
ARC
  5
57D6
330
53E2
100
AcDbEntity
  8
0
  6
Continuous
100
AcDbCircle
 10
-2727.375488
 20
1190.158634000001
 30
0.0
 40
10.5
100
AcDbArc
 50
0.0
 51
90.0
  0
ARC
  5
57D7
330
53E2
100
AcDbEntity
  8
0
  6
Continuous
100
AcDbCircle
 10
-2868.375488
 20
1190.158634000001
 30
0.0
 40
10.5
100
AcDbArc
 50
90.0
 51
180.0
  0
ARC
  5
57D8
330
53E2
100
AcDbEntity
  8
0
  6
Continuous
100
AcDbCircle
 10
-2775.375488
 20
1003.658634000001
 30
0.0
 40
10.0
100
AcDbArc
 50
270.0
 51
0.0
  0
LINE
  5
57D9
330
53E2
100
AcDbEntity
  8
0
  6
Continuous
100
AcDbLine
 10
-2775.375488
 20
993.6586340000012
 30
0.0
 11
-2820.375488
 21
993.6586340000012
 31
0.0
  0
ARC
  5
57DA
330
53E2
100
AcDbEntity
  8
0
  6
Continuous
100
AcDbCircle
 10
-2820.375488
 20
1003.658634000001
 30
0.0
 40
10.0
100
AcDbArc
 50
180.0
 51
270.0
  0
LINE
  5
57DB
330
53E2
100
AcDbEntity
  8
0
  6
Continuous
100
AcDbLine
 10
-2830.375487999999
 20
1003.658634000001
 30
0.0
 11
-2830.375487999999
 21
1038.658634000001
 31
0.0
  0
LINE
  5
57DC
330
53E2
100
AcDbEntity
  8
0
  6
Continuous
100
AcDbLine
 10
-2765.375488
 20
1038.658634000001
 30
0.0
 11
-2765.375488
 21
1003.658634000001
 31
0.0
  0
LINE
  5
57DD
330
53E2
100
AcDbEntity
  8
0
  6
Continuous
100
AcDbLine
 10
-2716.875488
 20
1093.658634000001
 30
0.0
 11
-2716.875488
 21
1064.658634000001
 31
0.0
  0
LINE
  5
57DE
330
53E2
100
AcDbEntity
  8
0
  6
Continuous
100
AcDbLine
 10
-2878.875488
 20
1190.158634000001
 30
0.0
 11
-2878.875488
 21
1064.658634000001
 31
0.0
  0
LINE
  5
57DF
330
53E2
100
AcDbEntity
  8
0
  6
Continuous
100
AcDbLine
 10
-2727.375488
 20
1200.658634000001
 30
0.0
 11
-2868.375488
 21
1200.658634000001
 31
0.0
  0
LINE
  5
57E0
330
53E2
100
AcDbEntity
  8
0
  6
Continuous
100
AcDbLine
 10
-2716.875488
 20
1064.658634000001
 30
0.0
 11
-2716.875488
 21
1190.158634000001
 31
0.0
  0
LWPOLYLINE
  5
57E1
330
53E2
100
AcDbEntity
  8
0
  6
Continuous
100
AcDbPolyline
 90
        4
 70
     0
 43
0.0
 10
-3039.375488
 20
-740.3413659999987
 10
-3039.375488
 20
-789.3413659999987
 10
-2884.375488
 20
-789.3413659999987
 10
-2884.375488
 20
-740.3413659999987
  0
LINE
  5
57E2
330
53E2
100
AcDbEntity
  8
0
  6
Continuous
100
AcDbLine
 10
-2893.375488
 20
-789.3413659999987
 30
0.0
 11
-2893.375488
 21
-740.3413659999987
 31
0.0
  0
LINE
  5
57E3
330
53E2
100
AcDbEntity
  8
0
  6
Continuous
100
AcDbLine
 10
-3030.375488
 20
-789.3413659999987
 30
0.0
 11
-3030.375488
 21
-740.3413659999987
 31
0.0
  0
ARC
  5
57E4
330
53E2
100
AcDbEntity
  8
0
  6
Continuous
100
AcDbCircle
 10
-2831.875488
 20
-905.3413659999987
 30
0.0
 40
50.0
100
AcDbArc
 50
270.0
 51
0.0
  0
ARC
  5
57E5
330
53E2
100
AcDbEntity
  8
0
  6
Continuous
100
AcDbCircle
 10
-2831.875488
 20
-785.3413659999987
 30
0.0
 40
50.0
100
AcDbArc
 50
0.0
 51
64.15806723998601
  0
ARC
  5
57E6
330
53E2
100
AcDbEntity
  8
0
  6
Continuous
100
AcDbCircle
 10
-3031.875488
 20
-905.3413659999987
 30
0.0
 40
50.0
100
AcDbArc
 50
180.0
 51
270.0
  0
LINE
  5
57E7
330
53E2
100
AcDbEntity
  8
0
  6
Continuous
100
AcDbLine
 10
-3031.875488
 20
-955.3413659999987
 30
0.0
 11
-2831.875488
 21
-955.3413659999987
 31
0.0
  0
LINE
  5
57E8
330
53E2
100
AcDbEntity
  8
0
  6
Continuous
100
AcDbLine
 10
-2880.875488
 20
-794.3119289999986
 30
0.0
 11
-2880.875488
 21
-799.3413659999987
 31
0.0
  0
LINE
  5
57E9
330
53E2
100
AcDbEntity
  8
0
  6
Continuous
100
AcDbLine
 10
-2884.375488
 20
-788.3266469999989
 30
0.0
 11
-2882.632847
 21
-790.0692879999987
 31
0.0
  0
ARC
  5
57EA
330
53E2
100
AcDbEntity
  8
0
  6
Continuous
100
AcDbCircle
 10
-2886.875488
 20
-794.3119289999986
 30
0.0
 40
6.0
100
AcDbArc
 50
0.0
 51
45.0
  0
LINE
  5
57EB
330
53E2
100
AcDbEntity
  8
0
  6
Continuous
100
AcDbLine
 10
-3039.375488
 20
-788.3266469999989
 30
0.0
 11
-3041.118129
 21
-790.0692879999987
 31
0.0
  0
ARC
  5
57EC
330
53E2
100
AcDbEntity
  8
0
  6
Continuous
100
AcDbCircle
 10
-3036.875488
 20
-794.3119289999986
 30
0.0
 40
6.0
100
AcDbArc
 50
135.0
 51
180.0
  0
LINE
  5
57ED
330
53E2
100
AcDbEntity
  8
0
  6
Continuous
100
AcDbLine
 10
-3042.875488
 20
-794.3119289999986
 30
0.0
 11
-3042.875488
 21
-799.3413659999987
 31
0.0
  0
LINE
  5
57EE
330
53E2
100
AcDbEntity
  8
0
  6
Continuous
100
AcDbLine
 10
-3042.875488
 20
-799.3413659999987
 30
0.0
 11
-3042.875488
 21
-798.4835019999991
 31
0.0
  0
LINE
  5
57EF
330
53E2
100
AcDbEntity
  8
0
  6
Continuous
100
AcDbLine
 10
-2891.375488
 20
-789.3413659999987
 30
0.0
 11
-3032.375488
 21
-789.3413659999987
 31
0.0
  0
ARC
  5
57F0
330
53E2
100
AcDbEntity
  8
0
  6
Continuous
100
AcDbCircle
 10
-3032.375488
 20
-940.8413659999988
 30
0.0
 40
10.5
100
AcDbArc
 50
180.0
 51
270.0
  0
ARC
  5
57F1
330
53E2
100
AcDbEntity
  8
0
  6
Continuous
100
AcDbCircle
 10
-2891.375488
 20
-940.8413659999988
 30
0.0
 40
10.5
100
AcDbArc
 50
270.0
 51
0.0
  0
LINE
  5
57F2
330
53E2
100
AcDbEntity
  8
0
  6
Continuous
100
AcDbLine
 10
-3042.875488
 20
-844.3413659999986
 30
0.0
 11
-3042.875488
 21
-815.3413659999987
 31
0.0
  0
LINE
  5
57F3
330
53E2
100
AcDbEntity
  8
0
  6
Continuous
100
AcDbLine
 10
-2880.875488
 20
-940.8413659999988
 30
0.0
 11
-2880.875488
 21
-815.3413659999987
 31
0.0
  0
LINE
  5
57F4
330
53E2
100
AcDbEntity
  8
0
  6
Continuous
100
AcDbLine
 10
-3032.375488
 20
-951.3413659999987
 30
0.0
 11
-2891.375488
 21
-951.3413659999987
 31
0.0
  0
LINE
  5
57F5
330
53E2
100
AcDbEntity
  8
0
  6
Continuous
100
AcDbLine
 10
-3042.875488
 20
-815.3413659999987
 30
0.0
 11
-3042.875488
 21
-940.8413659999988
 31
0.0
  0
LINE
  5
57F6
330
53E2
100
AcDbEntity
  8
0
  6
Continuous
100
AcDbLine
 10
660.1245120000003
 20
561.6586340000012
 30
0.0
 11
660.1245120000003
 21
729.6586340000012
 31
0.0
  0
LINE
  5
57F7
330
53E2
100
AcDbEntity
  8
0
  6
Continuous
100
AcDbLine
 10
1402.124512
 20
-578.3806339999991
 30
0.0
 11
1402.124512
 21
-622.3413659999987
 31
0.0
  0
LINE
  5
57F8
330
53E2
100
AcDbEntity
  8
0
  6
Continuous
100
AcDbLine
 10
1402.124512
 20
-622.3413659999987
 30
0.0
 11
1382.124512
 21
-622.3413659999987
 31
0.0
  0
LINE
  5
57F9
330
53E2
100
AcDbEntity
  8
0
  6
Continuous
100
AcDbLine
 10
-2389.726633
 20
-297.3413659999987
 30
0.0
 11
506.3372460000009
 21
-297.3413659999987
 31
0.0
  0
LWPOLYLINE
  5
57FA
330
53E2
100
AcDbEntity
  8
0
  6
Continuous
100
AcDbPolyline
 90
        3
 70
     0
 43
0.0
 10
1802.124512
 20
-480.3413659999987
 10
1802.124512
 20
-833.8413659999988
 10
2012.124512000001
 20
-833.8413659999988
  0
LWPOLYLINE
  5
57FB
330
53E2
100
AcDbEntity
  8
0
  6
Continuous
100
AcDbPolyline
 90
        3
 70
     0
 43
0.0
 10
2012.124512000001
 20
-833.8413659999988
 10
2012.124512000001
 20
-303.8413659999987
 10
1892.124512
 20
-303.8413659999987
  0
LWPOLYLINE
  5
57FC
330
53E2
100
AcDbEntity
  8
0
  6
Continuous
100
AcDbPolyline
 90
        3
 70
     0
 43
0.0
 10
2012.124512000001
 20
1083.158634000001
 10
2012.124512000001
 20
553.1586340000012
 10
1892.124512
 20
553.1586340000012
  0
LWPOLYLINE
  5
57FD
330
53E2
100
AcDbEntity
  8
0
  6
Continuous
100
AcDbPolyline
 90
        3
 70
     0
 43
0.0
 10
1802.124512
 20
729.6586340000012
 10
1802.124512
 20
1083.158634000001
 10
2012.124512000001
 20
1083.158634000001
  0
LWPOLYLINE
  5
57FE
330
53E2
100
AcDbEntity
  8
0
  6
Continuous
100
AcDbPolyline
 90
        4
 70
     0
 43
0.0
 10
1382.124512
 20
771.6586340000012
 10
1402.124512
 20
771.6586340000012
 10
1402.124512
 20
871.6586340000013
 10
1382.124512
 20
871.6586340000013
  0
LWPOLYLINE
  5
57FF
330
53E2
100
AcDbEntity
  8
0
  6
Continuous
100
AcDbPolyline
 90
        3
 70
     0
 43
0.0
 10
-2712.875488
 20
524.6586340000012
 10
-2565.530296
 20
524.6586340000012
 10
-2565.530296
 20
473.2995030000002
  0
LINE
  5
5800
330
53E2
100
AcDbEntity
  8
0
  6
Continuous
100
AcDbLine
 10
-3049.375488
 20
518.6586340000012
 30
0.0
 11
-3046.875488
 21
518.6586340000012
 31
0.0
  0
LINE
  5
5801
330
53E2
100
AcDbEntity
  8
0
  6
Continuous
100
AcDbLine
 10
-3046.875488
 20
989.6586340000013
 30
0.0
 11
-3046.875488
 21
982.6586340000012
 31
0.0
  0
LINE
  5
5802
330
53E2
100
AcDbEntity
  8
0
  6
Continuous
100
AcDbLine
 10
-2712.875488
 20
989.6586340000013
 30
0.0
 11
-2712.875488
 21
982.6586340000012
 31
0.0
  0
LINE
  5
5803
330
53E2
100
AcDbEntity
  8
0
  6
Continuous
100
AcDbLine
 10
-2712.875488
 20
-717.3413659999987
 30
0.0
 11
-2712.875488
 21
-509.3413659999987
 31
0.0
  0
LINE
  5
5804
330
53E2
100
AcDbEntity
  8
0
  6
Continuous
100
AcDbLine
 10
-2712.875488
 20
989.6586340000013
 30
0.0
 11
-3046.875488
 21
989.6586340000013
 31
0.0
  0
LINE
  5
5805
330
53E2
100
AcDbEntity
  8
0
  6
Continuous
100
AcDbLine
 10
-3046.875488
 20
966.6586340000012
 30
0.0
 11
-3046.875488
 21
496.3129870000011
 31
0.0
  0
LINE
  5
5806
330
53E2
100
AcDbEntity
  8
0
  6
Continuous
100
AcDbLine
 10
557.1245120000003
 20
544.6586340000012
 30
0.0
 11
-2712.875488
 21
544.6586340000012
 31
0.0
  0
LINE
  5
5807
330
53E2
100
AcDbEntity
  8
0
  6
Continuous
100
AcDbLine
 10
506.4328669999995
 20
-295.3413659999987
 30
0.0
 11
-2389.726633
 21
-295.3413659999987
 31
0.0
  0
LINE
  5
5808
330
53E2
100
AcDbEntity
  8
0
  6
Continuous
100
AcDbLine
 10
-1205.04838
 20
-295.3413659999987
 30
0.0
 11
506.4328669999995
 21
-295.3413659999987
 31
0.0
  0
LINE
  5
5809
330
53E2
100
AcDbEntity
  8
0
  6
Continuous
100
AcDbLine
 10
-2389.726633
 20
-295.3413659999987
 30
0.0
 11
-1375.613883
 21
-295.3413659999987
 31
0.0
  0
LINE
  5
580A
330
53E2
100
AcDbEntity
  8
0
  6
Continuous
100
AcDbLine
 10
-1128.534192
 20
544.6586340000012
 30
0.0
 11
557.1245120000003
 21
544.6586340000012
 31
0.0
  0
LINE
  5
580B
330
53E2
100
AcDbEntity
  8
0
  6
Continuous
100
AcDbLine
 10
-2712.875488
 20
544.6586340000012
 30
0.0
 11
-1303.32755
 21
544.6586340000012
 31
0.0
  0
LWPOLYLINE
  5
580C
330
53E2
100
AcDbEntity
  8
0
  6
Continuous
100
AcDbPolyline
 90
        5
 70
     0
 43
0.0
 10
-3112.875488
 20
590.6586340000012
 10
-3117.375488
 20
590.6586340000012
 10
-3117.375488
 20
540.6586340000012
 10
-3112.875488
 20
540.6586340000012
 10
-3112.875488
 20
590.6586340000012
  0
LWPOLYLINE
  5
580D
330
53E2
100
AcDbEntity
  8
0
  6
Continuous
100
AcDbPolyline
 90
        5
 70
     0
 43
0.0
 10
-3048.375488
 20
590.6586340000012
 10
-3052.875488
 20
590.6586340000012
 10
-3052.875488
 20
540.6586340000012
 10
-3048.375488
 20
540.6586340000012
 10
-3048.375488
 20
590.6586340000012
  0
ARC
  5
580E
330
53E2
100
AcDbEntity
  8
0
  6
Continuous
100
AcDbCircle
 10
1872.124512
 20
-460.3413659999987
 30
0.0
 40
20.0
100
AcDbArc
 50
270.0
 51
0.0
  0
ARC
  5
580F
330
53E2
100
AcDbEntity
  8
0
  6
Continuous
100
AcDbCircle
 10
1872.124512
 20
709.6586340000012
 30
0.0
 40
20.0
100
AcDbArc
 50
0.0
 51
90.0
  0
LINE
  5
5810
330
53E2
100
AcDbEntity
  8
0
  6
Continuous
100
AcDbLine
 10
-2712.875488
 20
544.6586340000012
 30
0.0
 11
-2712.875488
 21
480.3441900000016
 31
0.0
  0
LINE
  5
5811
330
53E2
100
AcDbEntity
  8
0
  6
Continuous
100
AcDbLine
 10
557.1245120000003
 20
544.6586340000012
 30
0.0
 11
557.1245120000003
 21
324.0029720000002
 31
0.0
  0
LINE
  5
5812
330
53E2
100
AcDbEntity
  8
0
  6
Continuous
100
AcDbLine
 10
-2882.875488
 20
-717.3413659999987
 30
0.0
 11
-2882.875488
 21
-509.3413659999987
 31
0.0
  0
LINE
  5
5813
330
53E2
100
AcDbEntity
  8
0
  6
Continuous
100
AcDbLine
 10
-2876.875487999999
 20
106.4801160000006
 30
0.0
 11
-2876.875487999999
 21
24.65863400000126
 31
0.0
  0
ARC
  5
5814
330
53E2
100
AcDbEntity
  8
0
  6
Continuous
100
AcDbCircle
 10
642.1245120000003
 20
564.6586340000012
 30
0.0
 40
20.0
100
AcDbArc
 50
270.0
 51
0.0
  0
LWPOLYLINE
  5
5815
330
53E2
100
AcDbEntity
  8
0
  6
Continuous
100
AcDbPolyline
 90
        3
 70
     0
 43
0.0
 10
642.1245120000003
 20
544.6586340000012
 10
562.1245120000003
 20
544.6586340000012
 10
562.1245120000003
 20
323.7639180000024
  0
LINE
  5
5816
330
53E2
100
AcDbEntity
  8
0
  6
Continuous
100
AcDbLine
 10
1470.297711999999
 20
-480.3413659999987
 30
0.0
 11
1872.124512
 21
-480.3413659999987
 31
0.0
  0
LINE
  5
5817
330
53E2
100
AcDbEntity
  8
0
  6
Continuous
100
AcDbLine
 10
562.1245120000003
 20
544.6586340000012
 30
0.0
 11
562.1245120000003
 21
323.7639180000024
 31
0.0
  0
LINE
  5
5818
330
53E2
100
AcDbEntity
  8
0
  6
Continuous
100
AcDbLine
 10
557.1245120000003
 20
544.6586340000012
 30
0.0
 11
557.1245120000003
 21
324.0029720000002
 31
0.0
  0
LWPOLYLINE
  5
5819
330
53E2
100
AcDbEntity
  8
0
  6
Continuous
100
AcDbPolyline
 90
        3
 70
     0
 43
0.0
 10
1872.124512
 20
729.6586340000012
 10
662.1245120000003
 20
729.6586340000012
 10
662.1245120000003
 20
564.6586340000012
  0
LINE
  5
581A
330
53E2
100
AcDbEntity
  8
0
  6
Continuous
100
AcDbLine
 10
1566.124512
 20
729.6586340000012
 30
0.0
 11
1566.124512
 21
966.6586340000012
 31
0.0
  0
LINE
  5
581B
330
53E2
100
AcDbEntity
  8
0
  6
Continuous
100
AcDbLine
 10
1572.124512
 20
966.6586340000012
 30
0.0
 11
1572.124512
 21
729.6586340000012
 31
0.0
  0
LINE
  5
581C
330
53E2
100
AcDbEntity
  8
0
  6
Continuous
100
AcDbLine
 10
1726.124512
 20
966.6586340000012
 30
0.0
 11
1726.124512
 21
729.6586340000012
 31
0.0
  0
LINE
  5
581D
330
53E2
100
AcDbEntity
  8
0
  6
Continuous
100
AcDbLine
 10
1576.124512
 20
729.6586340000012
 30
0.0
 11
1576.124512
 21
966.6586340000012
 31
0.0
  0
LINE
  5
581E
330
53E2
100
AcDbEntity
  8
0
  6
Continuous
100
AcDbLine
 10
1572.124512
 20
-480.3413659999987
 30
0.0
 11
1572.124512
 21
-717.3413659999987
 31
0.0
  0
LINE
  5
581F
330
53E2
100
AcDbEntity
  8
0
  6
Continuous
100
AcDbLine
 10
1566.124512
 20
-717.3413659999987
 30
0.0
 11
1566.124512
 21
-480.3413659999987
 31
0.0
  0
LINE
  5
5820
330
53E2
100
AcDbEntity
  8
0
  6
Continuous
100
AcDbLine
 10
1562.124512
 20
-480.3413659999987
 30
0.0
 11
1562.124512
 21
-717.3413659999987
 31
0.0
  0
LINE
  5
5821
330
53E2
100
AcDbEntity
  8
0
  6
Continuous
100
AcDbLine
 10
1412.124512
 20
-717.3413659999987
 30
0.0
 11
1412.124512
 21
-578.328790999999
 31
0.0
  0
LINE
  5
5822
330
53E2
100
AcDbEntity
  8
0
  6
Continuous
100
AcDbLine
 10
1736.124512
 20
966.6586340000012
 30
0.0
 11
1736.124512
 21
729.6586340000012
 31
0.0
  0
LWPOLYLINE
  5
5823
330
53E2
100
AcDbEntity
  8
0
  6
Continuous
100
AcDbPolyline
 90
        4
 70
     0
 43
0.0
 10
1402.124512
 20
982.6586340000012
 10
1402.124512
 20
989.6586340000013
 10
1736.124512
 20
989.6586340000013
 10
1736.124512
 20
982.6586340000012
  0
LINE
  5
5824
330
53E2
100
AcDbEntity
  8
0
  6
Continuous
100
AcDbLine
 10
1402.124512
 20
-717.3413659999987
 30
0.0
 11
1402.124512
 21
-578.3806339999991
 31
0.0
  0
LWPOLYLINE
  5
5825
330
53E2
100
AcDbEntity
  8
0
  6
Continuous
100
AcDbPolyline
 90
        4
 70
     0
 43
0.0
 10
1736.124512
 20
-733.3413659999987
 10
1736.124512
 20
-740.3413659999987
 10
1402.124512
 20
-740.3413659999987
 10
1402.124512
 20
-733.3413659999987
  0
LWPOLYLINE
  5
5826
330
53E2
100
AcDbEntity
  8
0
  6
Continuous
100
AcDbPolyline
 90
        5
 70
     0
 43
0.0
 10
-2926.875488
 20
989.6586340000013
 10
-2920.875488
 20
989.6586340000013
 10
-2920.875488
 20
1154.658634000001
 10
-2926.875488
 20
1154.658634000001
 10
-2926.875488
 20
989.6586340000013
  0
LWPOLYLINE
  5
5827
330
53E2
100
AcDbEntity
  8
0
  6
Continuous
100
AcDbPolyline
 90
        5
 70
     0
 43
0.0
 10
-3002.875488
 20
989.6586340000013
 10
-2996.875488
 20
989.6586340000013
 10
-2996.875488
 20
1154.658634000001
 10
-3002.875488
 20
1154.658634000001
 10
-3002.875488
 20
989.6586340000013
  0
LWPOLYLINE
  5
5828
330
53E2
100
AcDbEntity
  8
0
  6
Continuous
100
AcDbPolyline
 90
        5
 70
     0
 43
0.0
 10
1522.124512
 20
989.6586340000013
 10
1528.124512
 20
989.6586340000013
 10
1528.124512
 20
1154.658634000001
 10
1522.124512
 20
1154.658634000001
 10
1522.124512
 20
989.6586340000013
  0
LWPOLYLINE
  5
5829
330
53E2
100
AcDbEntity
  8
0
  6
Continuous
100
AcDbPolyline
 90
        5
 70
     0
 43
0.0
 10
1446.124512
 20
989.6586340000013
 10
1452.124512
 20
989.6586340000013
 10
1452.124512
 20
1154.658634000001
 10
1446.124512
 20
1154.658634000001
 10
1446.124512
 20
989.6586340000013
  0
LWPOLYLINE
  5
582A
330
53E2
100
AcDbEntity
  8
0
  6
Continuous
100
AcDbPolyline
 90
        5
 70
     0
 43
0.0
 10
1686.124512
 20
-740.3413659999987
 10
1692.124512
 20
-740.3413659999987
 10
1692.124512
 20
-905.3413659999987
 10
1686.124512
 20
-905.3413659999987
 10
1686.124512
 20
-740.3413659999987
  0
LWPOLYLINE
  5
582B
330
53E2
100
AcDbEntity
  8
0
  6
Continuous
100
AcDbPolyline
 90
        5
 70
     0
 43
0.0
 10
1610.124512
 20
-740.3413659999987
 10
1616.124512
 20
-740.3413659999987
 10
1616.124512
 20
-905.3413659999987
 10
1610.124512
 20
-905.3413659999987
 10
1610.124512
 20
-740.3413659999987
  0
LINE
  5
582C
330
53E2
100
AcDbEntity
  8
0
  6
Continuous
100
AcDbLine
 10
-3046.875488
 20
-733.3413659999987
 30
0.0
 11
-3046.875488
 21
-740.3413659999987
 31
0.0
  0
LINE
  5
582D
330
53E2
100
AcDbEntity
  8
0
  6
Continuous
100
AcDbLine
 10
-2876.875487999999
 20
-733.3413659999987
 30
0.0
 11
-2876.875487999999
 21
-740.3413659999987
 31
0.0
  0
LINE
  5
582E
330
53E2
100
AcDbEntity
  8
0
  6
Continuous
100
AcDbLine
 10
-2882.875488
 20
982.6586340000012
 30
0.0
 11
-2882.875488
 21
989.6586340000013
 31
0.0
  0
LINE
  5
582F
330
53E2
100
AcDbEntity
  8
0
  6
Continuous
100
AcDbLine
 10
-2876.875487999999
 20
989.6586340000013
 30
0.0
 11
-2876.875487999999
 21
982.6586340000012
 31
0.0
  0
LINE
  5
5830
330
53E2
100
AcDbEntity
  8
0
  6
Continuous
100
AcDbLine
 10
-2882.875488
 20
-740.3413659999987
 30
0.0
 11
-2882.875488
 21
-733.3413659999987
 31
0.0
  0
LINE
  5
5831
330
53E2
100
AcDbEntity
  8
0
  6
Continuous
100
AcDbLine
 10
1402.124512
 20
729.6586340000012
 30
0.0
 11
1402.124512
 21
966.6586340000012
 31
0.0
  0
LINE
  5
5832
330
53E2
100
AcDbEntity
  8
0
  6
Continuous
100
AcDbLine
 10
1736.124512
 20
-480.3413659999987
 30
0.0
 11
1736.124512
 21
-717.3413659999987
 31
0.0
  0
LWPOLYLINE
  5
5833
330
53E2
100
AcDbEntity
  8
0
  6
Continuous
100
AcDbPolyline
 90
        3
 70
     0
 43
0.0
 10
-3046.875488
 20
-740.3413659999987
 10
-2712.875488
 20
-740.3413659999987
 10
-2712.875488
 20
-733.3413659999987
  0
LWPOLYLINE
  5
5834
330
53E2
100
AcDbEntity
  8
0
  6
Continuous
100
AcDbPolyline
 90
        6
 70
     0
 43
0.0
 10
-4287.875488
 20
-872.8413659999986
 10
-4268.828055
 20
-882.4648709999983
 10
-4233.179623999999
 20
-898.4226359999993
 10
-4213.826916
 20
-905.8915099999985
 10
-4191.420295999998
 20
-910.8413659999987
 10
-3747.880803999998
 20
-910.8413659999987
  0
ARC
  5
5835
330
53E2
100
AcDbEntity
  8
0
  6
Continuous
100
AcDbCircle
 10
-3797.790722
 20
-905.3413659999987
 30
0.0
 40
50.0
100
AcDbArc
 50
270.0
 51
0.0
  0
LINE
  5
5836
330
53E2
100
AcDbEntity
  8
0
  6
Continuous
100
AcDbLine
 10
-3797.790722
 20
-955.3413659999987
 30
0.0
 11
-4247.875488
 21
-955.3413659999987
 31
0.0
  0
LINE
  5
5837
330
53E2
100
AcDbEntity
  8
0
  6
Continuous
100
AcDbLine
 10
-3742.207329999999
 20
-872.8413659999986
 30
0.0
 11
-4599.770019
 21
-872.8413659999986
 31
0.0
  0
LINE
  5
5838
330
53E2
100
AcDbEntity
  8
0
  6
Continuous
100
AcDbLine
 10
-3747.790722
 20
-907.8413659999988
 30
0.0
 11
-3717.065423999998
 21
-715.2370739999987
 31
0.0
  0
LINE
  5
5839
330
53E2
100
AcDbEntity
  8
0
  6
Continuous
100
AcDbLine
 10
-3717.065423999998
 20
-715.2370739999987
 30
0.0
 11
-3793.732723
 21
-656.2050809999991
 31
0.0
  0
LINE
  5
583A
330
53E2
100
AcDbEntity
  8
0
  6
Continuous
100
AcDbLine
 10
-3793.698925999999
 20
-738.9507409999987
 30
0.0
 11
-3793.732723
 21
-656.2050809999991
 31
0.0
  0
LINE
  5
583B
330
53E2
100
AcDbEntity
  8
0
  6
Continuous
100
AcDbLine
 10
-3747.153441
 20
-555.3413659999987
 30
0.0
 11
-3793.732723
 21
-656.2050809999991
 31
0.0
  0
LINE
  5
583C
330
53E2
100
AcDbEntity
  8
0
  6
Continuous
100
AcDbLine
 10
-3667.955322
 20
-633.4409749999995
 30
0.0
 11
-3717.065423999998
 21
-715.2370739999987
 31
0.0
  0
LINE
  5
583D
330
53E2
100
AcDbEntity
  8
0
  6
Continuous
100
AcDbLine
 10
-3747.790722
 20
1157.158634000001
 30
0.0
 11
-3717.065423999998
 21
964.5543420000013
 31
0.0
  0
LINE
  5
583E
330
53E2
100
AcDbEntity
  8
0
  6
Continuous
100
AcDbLine
 10
-3717.065423999998
 20
964.5543420000013
 30
0.0
 11
-3793.732723
 21
905.5223490000026
 31
0.0
  0
LINE
  5
583F
330
53E2
100
AcDbEntity
  8
0
  6
Continuous
100
AcDbLine
 10
-3793.698925999999
 20
988.2680090000013
 30
0.0
 11
-3793.732723
 21
905.5223490000026
 31
0.0
  0
ARC
  5
5840
330
53E2
100
AcDbEntity
  8
0
  6
Continuous
100
AcDbCircle
 10
-3454.648824999998
 20
-616.2186919999994
 30
0.0
 40
10.0
100
AcDbArc
 50
0.0248788935989157
 51
72.37655164999501
  0
LINE
  5
5841
330
53E2
100
AcDbEntity
  8
0
  6
Continuous
100
AcDbLine
 10
-3451.621224999999
 20
-606.6880239999981
 30
0.0
 11
-3461.906005999999
 21
-603.4208659999985
 31
0.0
  0
ARC
  5
5842
330
53E2
100
AcDbEntity
  8
0
  6
Continuous
100
AcDbCircle
 10
-3471.906006
 20
-565.0606439999992
 30
0.0
 40
10.0
100
AcDbArc
 50
0.0
 51
64.44476373998703
  0
ARC
  5
5843
330
53E2
100
AcDbEntity
  8
0
  6
Continuous
100
AcDbCircle
 10
-3459.629405
 20
-785.3413659999987
 30
0.0
 40
15.0
100
AcDbArc
 50
270.0
 51
0.0
  0
LWPOLYLINE
  5
5844
330
53E2
100
AcDbEntity
  8
0
  6
Continuous
100
AcDbPolyline
 90
        7
 70
     0
 43
0.0
 10
-3444.629405
 20
-785.3413659999987
 10
-3444.629405
 20
-778.3413659999987
 10
-3444.629405
 20
-720.3413659999987
 10
-3436.570641
 20
-697.366743999999
 10
-3436.570641
 20
-677.058536999998
 10
-3444.629405
 20
-660.9410089999991
 10
-3444.648825999999
 20
-616.2143499999992
  0
ARC
  5
5845
330
53E2
100
AcDbEntity
  8
0
  6
Continuous
100
AcDbCircle
 10
-3479.952069999999
 20
-758.3413659999987
 30
0.0
 40
10.0
100
AcDbArc
 50
270.0
 51
0.0
  0
LINE
  5
5846
330
53E2
100
AcDbEntity
  8
0
  6
Continuous
100
AcDbLine
 10
-3479.952069999999
 20
-768.3413659999987
 30
0.0
 11
-3521.906006
 21
-768.3413659999987
 31
0.0
  0
ARC
  5
5847
330
53E2
100
AcDbEntity
  8
0
  6
Continuous
100
AcDbCircle
 10
-3469.906005999999
 20
-712.3413659999987
 30
0.0
 40
8.0
100
AcDbArc
 50
270.0
 51
0.0
  0
LINE
  5
5848
330
53E2
100
AcDbEntity
  8
0
  6
Continuous
100
AcDbLine
 10
-3461.906005999999
 20
-712.3413659999987
 30
0.0
 11
-3461.906005999999
 21
-565.0606439999992
 31
0.0
  0
LWPOLYLINE
  5
5849
330
53E2
100
AcDbEntity
  8
0
  6
Continuous
100
AcDbPolyline
 90
        3
 70
     0
 43
0.0
 10
-3469.95207
 20
-720.3413659999987
 10
-3469.95207
 20
-748.3413659999987
 10
-3469.95207
 20
-758.3413659999987
  0
LINE
  5
584A
330
53E2
100
AcDbEntity
  8
0
  6
Continuous
100
AcDbLine
 10
-3521.906006
 20
-800.3413659999987
 30
0.0
 11
-3459.629405
 21
-800.3413659999987
 31
0.0
  0
LINE
  5
584B
330
53E2
100
AcDbEntity
  8
0
  6
Continuous
100
AcDbLine
 10
-3521.906006
 20
-720.3413659999987
 30
0.0
 11
-3469.906005999999
 21
-720.3413659999987
 31
0.0
  0
ARC
  5
584C
330
53E2
100
AcDbEntity
  8
0
  6
Continuous
100
AcDbCircle
 10
-3591.196947999999
 20
-830.3413659999987
 30
0.0
 40
20.0
100
AcDbArc
 50
203.8497235000044
 51
270.0
  0
LINE
  5
584D
330
53E2
100
AcDbEntity
  8
0
  6
Continuous
100
AcDbLine
 10
-3591.196947999999
 20
-850.3413659999987
 30
0.0
 11
-3551.906005999999
 21
-850.3413659999987
 31
0.0
  0
ARC
  5
584E
330
53E2
100
AcDbEntity
  8
0
  6
Continuous
100
AcDbCircle
 10
-3551.906005999999
 20
-820.3413659999988
 30
0.0
 40
30.0
100
AcDbArc
 50
270.0
 51
0.0
  0
ARC
  5
584F
330
53E2
100
AcDbEntity
  8
0
  6
Continuous
100
AcDbCircle
 10
-3571.906006
 20
-780.3413659999987
 30
0.0
 40
30.0
100
AcDbArc
 50
270.0
 51
0.0
  0
LINE
  5
5850
330
53E2
100
AcDbEntity
  8
0
  6
Continuous
100
AcDbLine
 10
-3621.906006
 20
-810.3413659999986
 30
0.0
 11
-3609.48913
 21
-838.4281499999987
 31
0.0
  0
LWPOLYLINE
  5
5851
330
53E2
100
AcDbEntity
  8
0
  6
Continuous
100
AcDbPolyline
 90
        3
 70
     0
 43
0.0
 10
-3571.906006
 20
-810.3413659999986
 10
-3621.906006
 20
-810.3413659999986
 10
-3656.906005999999
 20
-730.3413659999987
  0
LINE
  5
5852
330
53E2
100
AcDbEntity
  8
0
  6
Continuous
100
AcDbLine
 10
-5136.637312000001
 20
-811.5283389999994
 30
0.0
 11
-5119.897616
 21
-826.5440519999984
 31
0.0
  0
ARC
  5
5853
330
53E2
100
AcDbEntity
  8
0
  6
Continuous
100
AcDbCircle
 10
-5221.952772000001
 20
-834.6722309999995
 30
0.0
 40
70.0
100
AcDbArc
 50
96.39591926996041
 51
154.9262543000091
  0
LINE
  5
5854
330
53E2
100
AcDbEntity
  8
0
  6
Continuous
100
AcDbLine
 10
-5285.356188
 20
-805.0073219999985
 30
0.0
 11
-5337.626564
 21
-916.725860999999
 31
0.0
  0
ARC
  5
5855
330
53E2
100
AcDbEntity
  8
0
  6
Continuous
100
AcDbCircle
 10
-5221.952772000001
 20
-834.6722309999995
 30
0.0
 40
50.0
100
AcDbArc
 50
96.39591926996041
 51
154.9262543000091
  0
LINE
  5
5856
330
53E2
100
AcDbEntity
  8
0
  6
Continuous
100
AcDbLine
 10
-5227.522679999999
 20
-784.9834379999983
 30
0.0
 11
-5117.368817
 21
-772.6356469999991
 31
0.0
  0
LINE
  5
5857
330
53E2
100
AcDbEntity
  8
0
  6
Continuous
100
AcDbLine
 10
-5328.455900999999
 20
-944.3190219999987
 30
0.0
 11
-5267.240926
 21
-813.483009999998
 31
0.0
  0
LINE
  5
5858
330
53E2
100
AcDbEntity
  8
0
  6
Continuous
100
AcDbLine
 10
-5161.536465
 20
-757.4613949999993
 30
0.0
 11
-5229.750643
 21
-765.1079209999989
 31
0.0
  0
LWPOLYLINE
  5
5859
330
53E2
100
AcDbEntity
  8
0
  6
Continuous
100
AcDbPolyline
 90
       12
 70
     0
 43
0.0
 10
-5419.961359999999
 20
-924.9495659999984
 10
-5418.904345000001
 20
-922.8413659999986
 10
-5417.780193999999
 20
-920.3108429999984
 10
-5416.765942
 20
-917.7118809999992
 10
-5415.864368999999
 20
-915.0516029999989
 10
-5415.077945
 20
-912.3373009999978
 10
-5414.408825999998
 20
-909.5764129999988
 10
-5413.858846
 20
-906.7765089999992
 10
-5413.429512999999
 20
-903.9452619999984
 10
-5413.122002999998
 20
-901.0904309999997
 10
-5412.937158999999
 20
-898.2198439999992
 10
-5412.875488
 20
-895.3413659999988
  0
LWPOLYLINE
  5
585A
330
53E2
100
AcDbEntity
  8
0
  6
Continuous
100
AcDbPolyline
 90
       99
 70
     0
 43
0.0
 10
-5412.875488
 20
-895.3413659999988
 10
-5412.937158999999
 20
-892.4628879999982
 10
-5413.122002999998
 20
-889.5923009999979
 10
-5413.429512999999
 20
-886.7374699999992
 10
-5413.858846
 20
-883.9062229999981
 10
-5414.408825999998
 20
-881.1063189999986
 10
-5415.077945
 20
-878.3454309999997
 10
-5415.864368999999
 20
-875.6311289999985
 10
-5416.765942
 20
-872.9708509999982
 10
-5417.780193999999
 20
-870.371888999999
 10
-5418.904345000001
 20
-867.8413659999987
 10
-5420.135312000001
 20
-865.3862189999991
 10
-5421.469723000001
 20
-863.0131769999989
 10
-5422.903919999999
 20
-860.7287439999991
 10
-5424.433971
 20
-858.539182999999
 10
-5426.055683000001
 20
-856.4504929999984
 10
-5427.764611
 20
-854.4684009999983
 10
-5429.556070000001
 20
-852.5983379999988
 10
-5431.425152
 20
-850.8454309999997
 10
-5433.366731
 20
-849.2144849999986
 10
-5435.375488
 20
-847.7099689999986
 10
-5437.445915999998
 20
-846.336006999998
 10
-5439.572339
 20
-845.0963659999988
 10
-5441.74893
 20
-843.9944429999986
 10
-5443.969723
 20
-843.0332579999985
 10
-5446.228631
 20
-842.2154459999983
 10
-5448.519461999999
 20
-841.5432479999982
 10
-5450.835937
 20
-841.0185069999979
 10
-5453.171707
 20
-840.6426619999983
 10
-5455.52037
 20
-840.4167419999994
 10
-5457.875487999999
 20
-840.3413659999987
 10
-5460.230605999999
 20
-840.4167419999994
 10
-5462.579268999999
 20
-840.6426619999983
 10
-5464.915039
 20
-841.0185069999979
 10
-5467.231514000001
 20
-841.5432479999982
 10
-5469.522344999999
 20
-842.2154459999983
 10
-5471.781252999999
 20
-843.0332579999985
 10
-5474.002045999999
 20
-843.9944429999986
 10
-5476.178636999999
 20
-845.0963659999988
 10
-5478.305060000001
 20
-846.336006999998
 10
-5480.375487999999
 20
-847.7099689999986
 10
-5482.384244999999
 20
-849.2144849999986
 10
-5484.325823999999
 20
-850.8454309999997
 10
-5486.194905999998
 20
-852.5983379999988
 10
-5487.986364999999
 20
-854.4684009999983
 10
-5489.695292999999
 20
-856.4504929999984
 10
-5491.317004999999
 20
-858.539182999999
 10
-5492.847056000001
 20
-860.7287439999991
 10
-5494.281252999999
 20
-863.0131769999989
 10
-5495.615663999998
 20
-865.3862189999991
 10
-5496.846630999999
 20
-867.8413659999987
 10
-5497.970782
 20
-870.371888999999
 10
-5498.985034
 20
-872.9708509999982
 10
-5499.886607
 20
-875.6311289999985
 10
-5500.673031
 20
-878.3454309999997
 10
-5501.342150000001
 20
-881.1063189999986
 10
-5501.89213
 20
-883.9062229999981
 10
-5502.321463000001
 20
-886.7374699999992
 10
-5502.628973000001
 20
-889.5923009999979
 10
-5502.813817
 20
-892.4628879999982
 10
-5502.875488
 20
-895.3413659999988
 10
-5502.813817
 20
-898.2198439999992
 10
-5502.628973000001
 20
-901.0904309999997
 10
-5502.321463000001
 20
-903.9452619999984
 10
-5501.89213
 20
-906.7765089999992
 10
-5501.342150000001
 20
-909.5764129999988
 10
-5500.673031
 20
-912.3373009999978
 10
-5499.886607
 20
-915.0516029999989
 10
-5498.985034
 20
-917.7118809999992
 10
-5497.970782
 20
-920.3108429999984
 10
-5496.846630999999
 20
-922.8413659999986
 10
-5495.615663999998
 20
-925.2965129999983
 10
-5494.281252999999
 20
-927.6695549999985
 10
-5492.847056000001
 20
-929.9539879999983
 10
-5491.317004999999
 20
-932.1435489999984
 10
-5489.695292999999
 20
-934.232238999999
 10
-5487.986364999999
 20
-936.2143309999991
 10
-5486.194905999998
 20
-938.0843939999985
 10
-5484.325823999999
 20
-939.8373009999977
 10
-5482.384244999999
 20
-941.4682469999988
 10
-5480.375487999999
 20
-942.9727629999987
 10
-5478.305060000001
 20
-944.3467249999994
 10
-5476.178636999999
 20
-945.5863659999986
 10
-5474.002045999999
 20
-946.6882889999988
 10
-5471.781252999999
 20
-947.6494739999989
 10
-5469.522344999999
 20
-948.467285999999
 10
-5467.231514000001
 20
-949.1394839999994
 10
-5464.915039
 20
-949.6642249999995
 10
-5462.579268999999
 20
-950.0400699999991
 10
-5460.230605999999
 20
-950.2659899999981
 10
-5457.875487999999
 20
-950.3413659999987
 10
-5455.52037
 20
-950.2659899999981
 10
-5453.171707
 20
-950.0400699999991
 10
-5450.835937
 20
-949.6642249999995
 10
-5448.519461999999
 20
-949.1394839999994
 10
-5446.228631
 20
-948.467285999999
 10
-5443.969723
 20
-947.6494739999989
 10
-5441.74893
 20
-946.6882889999988
 10
-5439.822051
 20
-945.7127859999991
  0
LINE
  5
585B
330
53E2
100
AcDbEntity
  8
0
  6
Continuous
100
AcDbLine
 10
-5421.608271
 20
-940.1383869999982
 30
0.0
 11
-5397.781644999999
 21
-958.9265749999995
 31
0.0
  0
LINE
  5
585C
330
53E2
100
AcDbEntity
  8
0
  6
Continuous
100
AcDbLine
 10
-5428.737444000001
 20
-946.9859589999996
 30
0.0
 11
-5396.594201
 21
-973.7622299999983
 31
0.0
  0
LWPOLYLINE
  5
585D
330
53E2
100
AcDbEntity
  8
0
  6
Continuous
100
AcDbPolyline
 90
       51
 70
     0
 43
0.0
 10
-5482.755
 20
-898.0800409999984
 10
-5483.244847
 20
-897.1752949999991
 10
-5483.729137
 20
-896.2719229999985
 10
-5484.202317
 20
-895.3712999999989
 10
-5484.658829
 20
-894.4747999999989
 10
-5485.093117999999
 20
-893.5837959999981
 10
-5485.499626999999
 20
-892.6996639999988
 10
-5485.872802
 20
-891.8237779999991
 10
-5486.207086999999
 20
-890.9575119999981
 10
-5486.496924999999
 20
-890.1022389999988
 10
-5486.73676
 20
-889.2593349999987
 10
-5486.922326
 20
-888.4305079999986
 10
-5487.054507999999
 20
-887.6188009999978
 10
-5487.135480999999
 20
-886.8275929999981
 10
-5487.167416999999
 20
-886.0602619999982
 10
-5487.152491999999
 20
-885.3201849999987
 10
-5487.092879
 20
-884.6107409999985
 10
-5486.990752
 20
-883.9353079999991
 10
-5486.848286
 20
-883.2972639999988
 10
-5486.667654999999
 20
-882.6999869999982
 10
-5486.451031999999
 20
-882.1468539999987
 10
-5486.201132
 20
-881.639904999999
 10
-5485.922827
 20
-881.175823999999
 10
-5485.621530999999
 20
-880.7499549999985
 10
-5485.302657
 20
-880.3576419999989
 10
-5484.971616999999
 20
-879.9942309999996
 10
-5484.633823999999
 20
-879.655064999998
 10
-5484.294690999999
 20
-879.335488999999
 10
-5483.959632
 20
-879.0308479999977
 10
-5483.634057999999
 20
-878.7364869999983
 10
-5483.323383999999
 20
-878.447748999998
 10
-5483.030701
 20
-878.1618739999984
 10
-5482.749824
 20
-877.8836759999986
 10
-5482.472243999999
 20
-877.6198639999993
 10
-5482.189455
 20
-877.3771469999992
 10
-5481.892948999999
 20
-877.162232999999
 10
-5481.574220999998
 20
-876.9818319999986
 10
-5481.224762
 20
-876.8426519999984
 10
-5480.836066
 20
-876.7514009999977
 10
-5480.399626
 20
-876.7147889999987
 10
-5479.906934999998
 20
-876.739524999999
 10
-5479.351982
 20
-876.8300639999988
 10
-5478.738747
 20
-876.9818539999977
 10
-5478.073705999999
 20
-877.1880889999993
 10
-5477.363332999999
 20
-877.4419629999984
 10
-5476.614105999999
 20
-877.7366699999992
 10
-5475.832499
 20
-878.0654059999998
 10
-5475.024989
 20
-878.4213639999988
 10
-5474.198052
 20
-878.7977389999987
 10
-5473.358162999999
 20
-879.1877249999988
 10
-5472.511797999999
 20
-879.5845169999992
  0
LWPOLYLINE
  5
585E
330
53E2
100
AcDbEntity
  8
0
  6
Continuous
100
AcDbPolyline
 90
        4
 70
     0
 43
0.0
 10
-5472.511797999999
 20
-879.5845169999992
 10
-5412.478155999999
 20
-931.3689099999983
 10
-5434.101327
 20
-952.1379699999997
 10
-5482.755
 20
-898.0800409999984
  0
LWPOLYLINE
  5
585F
330
53E2
100
AcDbEntity
  8
0
  6
Continuous
100
AcDbPolyline
 90
        5
 70
     0
 43
0.0
 10
-5366.039926
 20
-1069.034974999998
 10
-5351.519502999999
 20
-1079.931350999998
 10
-5332.134474
 20
-1087.144819999999
 10
-5309.648142
 20
-1087.665024999999
 10
-5283.183546999999
 20
-1080.536799999999
  0
LWPOLYLINE
  5
5860
330
53E2
100
AcDbEntity
  8
0
  6
Continuous
100
AcDbPolyline
 90
        5
 70
     0
 43
0.0
 10
-5397.114498000001
 20
-975.5362109999987
 10
-5392.005219999999
 20
-958.1158489999989
 10
-5380.794572999999
 20
-940.7338229999977
 10
-5363.093102
 20
-926.8570919999993
 10
-5337.626564
 20
-916.725860999999
  0
LINE
  5
5861
330
53E2
100
AcDbEntity
  8
0
  6
Continuous
100
AcDbLine
 10
-5383.982920000001
 20
-931.4930019999984
 30
0.0
 11
-5329.157093
 21
-1096.455756999999
 31
0.0
  0
LINE
  5
5862
330
53E2
100
AcDbEntity
  8
0
  6
Continuous
100
AcDbLine
 10
-5345.111932
 20
-910.0568829999993
 30
0.0
 11
-5285.1878
 21
-1090.359679999998
 31
0.0
  0
ARC
  5
5863
330
53E2
100
AcDbEntity
  8
0
  6
Continuous
100
AcDbCircle
 10
-5316.630399
 20
-1069.196227999999
 30
0.0
 40
30.0
100
AcDbArc
 50
245.3195863999698
 51
288.3843693999724
  0
ARC
  5
5864
330
53E2
100
AcDbEntity
  8
0
  6
Continuous
100
AcDbCircle
 10
-5357.63112
 20
-945.8311559999993
 30
0.0
 40
30.0
100
AcDbArc
 50
108.3843693999724
 51
151.4491524000083
  0
ARC
  5
5865
330
53E2
100
AcDbEntity
  8
0
  6
Continuous
100
AcDbCircle
 10
-5337.571062999999
 20
-1059.573269999999
 30
0.0
 40
30.0
100
AcDbArc
 50
198.3843693999889
 51
245.3195863999698
  0
ARC
  5
5866
330
53E2
100
AcDbEntity
  8
0
  6
Continuous
100
AcDbCircle
 10
-5368.645635
 20
-966.0745059999991
 30
0.0
 40
30.0
100
AcDbArc
 50
151.4491524000083
 51
198.3843693999889
  0
LINE
  5
5867
330
53E2
100
AcDbEntity
  8
0
  6
Continuous
100
AcDbLine
 10
-5397.114498000001
 20
-975.5362109999987
 30
0.0
 11
-5366.039926
 21
-1069.034974999998
 31
0.0
  0
LINE
  5
5868
330
53E2
100
AcDbEntity
  8
0
  6
Continuous
100
AcDbLine
 10
-5329.157093
 20
-1096.455756999999
 30
0.0
 11
-5350.097758
 21
-1086.832798999999
 31
0.0
  0
LINE
  5
5869
330
53E2
100
AcDbEntity
  8
0
  6
Continuous
100
AcDbLine
 10
-5383.982920000001
 20
-931.4930019999984
 30
0.0
 11
-5394.997433999999
 21
-951.7363519999989
 31
0.0
  0
LINE
  5
586A
330
53E2
100
AcDbEntity
  8
0
  6
Continuous
100
AcDbLine
 10
-5280.442988999999
 20
-1088.782728999998
 30
0.0
 11
-5307.168694
 21
-1097.665089999998
 31
0.0
  0
LINE
  5
586B
330
53E2
100
AcDbEntity
  8
0
  6
Continuous
100
AcDbLine
 10
-5340.367120999999
 20
-908.4799319999984
 30
0.0
 11
-5367.092825
 21
-917.3622939999987
 31
0.0
  0
LINE
  5
586C
330
53E2
100
AcDbEntity
  8
0
  6
Continuous
100
AcDbLine
 10
-5340.367120999999
 20
-908.4799319999984
 30
0.0
 11
-5280.442988999999
 21
-1088.782728999998
 31
0.0
  0
ARC
  5
586D
330
53E2
100
AcDbEntity
  8
0
  6
Continuous
100
AcDbCircle
 10
-5132.052492000001
 20
1089.662573000001
 30
0.0
 40
50.0
100
AcDbArc
 50
156.516639400019
 51
231.468110400011
  0
LINE
  5
586E
330
53E2
100
AcDbEntity
  8
0
  6
Continuous
100
AcDbLine
 10
-5163.199998
 20
1050.549495000001
 30
0.0
 11
-5120.659195999999
 21
1016.672337000001
 31
0.0
  0
ARC
  5
586F
330
53E2
100
AcDbEntity
  8
0
  6
Continuous
100
AcDbCircle
 10
-5132.052492000001
 20
1089.662573000001
 30
0.0
 40
30.0
100
AcDbArc
 50
156.516639400019
 51
231.468110400011
  0
LINE
  5
5870
330
53E2
100
AcDbEntity
  8
0
  6
Continuous
100
AcDbLine
 10
-5159.567766999998
 20
1101.617055000001
 30
0.0
 11
-5102.155230999999
 21
1233.761781000001
 31
0.0
  0
ARC
  5
5871
330
53E2
100
AcDbEntity
  8
0
  6
Continuous
100
AcDbCircle
 10
-5111.771606000001
 20
1022.976993000002
 30
0.0
 40
10.0
100
AcDbArc
 50
215.3510322999805
 51
69.07540889997332
  0
LINE
  5
5872
330
53E2
100
AcDbEntity
  8
0
  6
Continuous
100
AcDbLine
 10
-5108.200192999999
 20
1032.317569000001
 30
0.0
 11
-5150.740995999999
 21
1066.194726000001
 31
0.0
  0
LINE
  5
5873
330
53E2
100
AcDbEntity
  8
0
  6
Continuous
100
AcDbLine
 10
-5115.671834999999
 20
1252.841396000001
 30
0.0
 11
-5177.911284
 21
1109.586709000001
 31
0.0
  0
LWPOLYLINE
  5
5874
330
53E2
100
AcDbEntity
  8
0
  6
Continuous
100
AcDbPolyline
 90
        5
 70
     0
 43
0.0
 10
-5120.38631
 20
1275.950291000001
 10
-5113.259442999999
 20
1259.253540000001
 10
-5100.078250000001
 20
1243.313979000002
 10
-5080.864617999999
 20
1231.620302000001
 10
-5054.381494
 20
1224.561228
  0
LWPOLYLINE
  5
5875
330
53E2
100
AcDbEntity
  8
0
  6
Continuous
100
AcDbPolyline
 90
        5
 70
     0
 43
0.0
 10
-5100.548296999999
 20
1372.459881000001
 10
-5087.413351999999
 20
1384.991718000001
 10
-5069.013634
 20
1394.439671000002
 10
-5046.745344999999
 20
1397.606537000001
 10
-5019.62506
 20
1393.647172000001
  0
ARC
  5
5876
330
53E2
100
AcDbEntity
  8
0
  6
Continuous
100
AcDbCircle
 10
-5077.677031
 20
1251.105878
 30
0.0
 40
30.0
100
AcDbArc
 50
215.3195864000078
 51
258.3843693999598
  0
ARC
  5
5877
330
53E2
100
AcDbEntity
  8
0
  6
Continuous
100
AcDbCircle
 10
-5051.502161999999
 20
1378.443525
 30
0.0
 40
30.0
100
AcDbArc
 50
78.3843694099651
 51
121.4491523999799
  0
ARC
  5
5878
330
53E2
100
AcDbEntity
  8
0
  6
Continuous
100
AcDbCircle
 10
-5091.000699999998
 20
1269.909937000002
 30
0.0
 40
30.0
100
AcDbArc
 50
168.3843694000213
 51
215.3195864000078
  0
ARC
  5
5879
330
53E2
100
AcDbEntity
  8
0
  6
Continuous
100
AcDbCircle
 10
-5071.162687000001
 20
1366.419527000002
 30
0.0
 40
30.0
100
AcDbArc
 50
121.4491523999799
 51
168.3843694000213
  0
LINE
  5
587A
330
53E2
100
AcDbEntity
  8
0
  6
Continuous
100
AcDbLine
 10
-5102.155230999999
 20
1233.761781000001
 30
0.0
 11
-5115.4789
 21
1252.565839
 31
0.0
  0
LINE
  5
587B
330
53E2
100
AcDbEntity
  8
0
  6
Continuous
100
AcDbLine
 10
-5067.154412
 20
1404.03663
 30
0.0
 11
-5086.814937000001
 21
1392.012632000002
 31
0.0
  0
LINE
  5
587C
330
53E2
100
AcDbEntity
  8
0
  6
Continuous
100
AcDbLine
 10
-5056.131066
 20
1216.049766
 30
0.0
 11
-5083.717385999999
 21
1221.720267
 31
0.0
  0
LINE
  5
587D
330
53E2
100
AcDbEntity
  8
0
  6
Continuous
100
AcDbLine
 10
-5017.875488
 20
1402.158634000001
 30
0.0
 11
-5045.461808
 21
1407.829135000002
 31
0.0
  0
LWPOLYLINE
  5
587E
330
53E2
100
AcDbEntity
  8
0
  6
Continuous
100
AcDbPolyline
 90
        6
 70
     0
 43
0.0
 10
-4287.875488
 20
1122.158634000001
 10
-4268.828055
 20
1131.782139000001
 10
-4233.179623999999
 20
1147.739904000002
 10
-4213.826916
 20
1155.208778
 10
-4191.420295999998
 20
1160.158634000001
 10
-3747.880803999998
 20
1160.158634000001
  0
ARC
  5
587F
330
53E2
100
AcDbEntity
  8
0
  6
Continuous
100
AcDbCircle
 10
-4750.904316
 20
-671.7467979999983
 30
0.0
 40
70.0
100
AcDbArc
 50
281.3097270999842
 51
6.319124200022995
  0
ARC
  5
5880
330
53E2
100
AcDbEntity
  8
0
  6
Continuous
100
AcDbCircle
 10
-4750.784356999998
 20
-671.7225409999992
 30
0.0
 40
50.0
100
AcDbArc
 50
281.3098019000129
 51
6.339290399981253
  0
LINE
  5
5881
330
53E2
100
AcDbEntity
  8
0
  6
Continuous
100
AcDbLine
 10
-4737.176431999998
 20
-740.3874939999987
 30
0.0
 11
-4962.008645
 21
-785.3530989999981
 31
0.0
  0
ARC
  5
5882
330
53E2
100
AcDbEntity
  8
0
  6
Continuous
100
AcDbCircle
 10
-4750.904457999999
 20
921.0627780000013
 30
0.0
 40
70.0
100
AcDbArc
 50
353.6808876999872
 51
78.68993680002664
  0
ARC
  5
5883
330
53E2
100
AcDbEntity
  8
0
  6
Continuous
100
AcDbCircle
 10
-4750.784356999998
 20
921.0398090000017
 30
0.0
 40
50.0
100
AcDbArc
 50
353.6607096000187
 51
78.69019809998714
  0
ARC
  5
5884
330
53E2
100
AcDbEntity
  8
0
  6
Continuous
100
AcDbCircle
 10
-3797.790722
 20
1154.658634000001
 30
0.0
 40
50.0
100
AcDbArc
 50
0.0
 51
90.0
  0
LINE
  5
5885
330
53E2
100
AcDbEntity
  8
0
  6
Continuous
100
AcDbLine
 10
-3797.790722
 20
1204.658634000001
 30
0.0
 11
-4247.875488
 21
1204.658634000001
 31
0.0
  0
LWPOLYLINE
  5
5886
330
53E2
100
AcDbEntity
  8
0
  6
Continuous
100
AcDbPolyline
 90
        3
 70
     0
 43
0.0
 10
-3495.875488
 20
517.7800230000011
 10
-3495.875488
 20
579.6586340000012
 10
-3597.375487999999
 20
579.6586340000012
  0
LINE
  5
5887
330
53E2
100
AcDbEntity
  8
0
  6
Continuous
100
AcDbLine
 10
-3456.875488
 20
165.515604000002
 30
0.0
 11
-3456.875488
 21
-90.34136599999873
 31
0.0
  0
LINE
  5
5888
330
53E2
100
AcDbEntity
  8
0
  6
Continuous
100
AcDbLine
 10
-3408.143065999999
 20
-295.3413659999987
 30
0.0
 11
-3428.300781
 21
-383.1992759999985
 31
0.0
  0
ARC
  5
5889
330
53E2
100
AcDbEntity
  8
0
  6
Continuous
100
AcDbCircle
 10
-3528.143065999999
 20
-495.143611999998
 30
0.0
 40
150.0
100
AcDbArc
 50
303.8236465000256
 51
105.5266767000119
  0
ARC
  5
588A
330
53E2
100
AcDbEntity
  8
0
  6
Continuous
100
AcDbCircle
 10
-3528.143065999999
 20
-495.143611999998
 30
0.0
 40
55.0
100
AcDbArc
 50
286.0705413999676
 51
286.0715561000222
  0
LINE
  5
588B
330
53E2
100
AcDbEntity
  8
0
  6
Continuous
100
AcDbLine
 10
-3397.019531
 20
-567.9898039999979
 30
0.0
 11
-3444.637689
 21
-641.8620739999987
 31
0.0
  0
ARC
  5
588C
330
53E2
100
AcDbEntity
  8
0
  6
Continuous
100
AcDbCircle
 10
-3528.143065999999
 20
-495.143611999998
 30
0.0
 40
55.0
100
AcDbArc
 50
302.8469521999856
 51
122.5715948000466
  0
ARC
  5
588D
330
53E2
100
AcDbEntity
  8
0
  6
Continuous
100
AcDbCircle
 10
-5064.130005000001
 20
981.0365640000018
 30
0.0
 40
112.4704437
100
AcDbArc
 50
89.36785888996343
 51
135.0041980000257
  0
ARC
  5
588E
330
53E2
100
AcDbEntity
  8
0
  6
Continuous
100
AcDbCircle
 10
-5064.130005000001
 20
981.0365640000018
 30
0.0
 40
112.4704437
100
AcDbArc
 50
145.2091515999843
 51
169.1946410999955
  0
ARC
  5
588F
330
53E2
100
AcDbEntity
  8
0
  6
Continuous
100
AcDbCircle
 10
-4983.929686999999
 20
977.5761140000012
 30
0.0
 40
120.3976212
100
AcDbArc
 50
80.88119506995903
 51
169.0010985999741
  0
LINE
  5
5890
330
53E2
100
AcDbEntity
  8
0
  6
Continuous
100
AcDbLine
 10
-5000.284301
 20
-865.3770109999987
 30
0.0
 11
-5076.924926
 21
-846.6836509999984
 31
0.0
  0
ARC
  5
5891
330
53E2
100
AcDbEntity
  8
0
  6
Continuous
100
AcDbCircle
 10
-4975.669188999998
 20
-716.436580999999
 30
0.0
 40
131.1458435
100
AcDbArc
 50
199.5854905000069
 51
274.7329788000063
  0
LINE
  5
5892
330
53E2
100
AcDbEntity
  8
0
  6
Continuous
100
AcDbLine
 10
-3742.207329999999
 20
1122.158634000001
 30
0.0
 11
-4599.770019
 21
1122.158634000001
 31
0.0
  0
LINE
  5
5893
330
53E2
100
AcDbEntity
  8
0
  6
Continuous
100
AcDbLine
 10
-4599.770019
 20
1122.158634000001
 30
0.0
 11
-4964.848022
 21
1096.452579000001
 31
0.0
  0
ARC
  5
5894
330
53E2
100
AcDbEntity
  8
0
  6
Continuous
100
AcDbCircle
 10
-4956.419555
 20
-727.4316979999976
 30
0.0
 40
120.0
100
AcDbArc
 50
196.5974026999812
 51
265.9723816000465
  0
LWPOLYLINE
  5
5895
330
53E2
100
AcDbEntity
  8
0
  6
Continuous
100
AcDbPolyline
 90
        3
 70
     0
 43
0.0
 10
-5126.475174999999
 20
-773.6564319999979
 10
-5096.903442000001
 20
-801.6934169999995
 10
-5076.942505000001
 20
-799.2578699999994
  0
LINE
  5
5896
330
53E2
100
AcDbEntity
  8
0
  6
Continuous
100
AcDbLine
 10
-4599.770019
 20
-872.8413659999986
 30
0.0
 11
-4964.848022
 21
-847.1353109999991
 31
0.0
  0
LINE
  5
5897
330
53E2
100
AcDbEntity
  8
0
  6
Continuous
100
AcDbLine
 10
-3824.713378999999
 20
-872.8413659999986
 30
0.0
 11
-3843.617674999999
 21
-738.9507409999987
 31
0.0
  0
ARC
  5
5898
330
53E2
100
AcDbEntity
  8
0
  6
Continuous
100
AcDbCircle
 10
-3682.336181000001
 20
-619.5425379999988
 30
0.0
 40
20.0
100
AcDbArc
 50
315.9751281999758
 51
0.0
  0
LINE
  5
5899
330
53E2
100
AcDbEntity
  8
0
  6
Continuous
100
AcDbLine
 10
-3754.990722000001
 20
-872.8413659999986
 30
0.0
 11
-4599.770019
 21
-872.8413659999986
 31
0.0
  0
LINE
  5
589A
330
53E2
100
AcDbEntity
  8
0
  6
Continuous
100
AcDbLine
 10
-4966.342285000001
 20
-765.8237879999988
 30
0.0
 11
-4740.978661999999
 21
-720.7515969999986
 31
0.0
  0
ARC
  5
589B
330
53E2
100
AcDbEntity
  8
0
  6
Continuous
100
AcDbCircle
 10
-4975.736815999999
 20
-716.7124599999988
 30
0.0
 40
70.0
100
AcDbArc
 50
222.2484759000451
 51
281.3099670000331
  0
ARC
  5
589C
330
53E2
100
AcDbEntity
  8
0
  6
Continuous
100
AcDbCircle
 10
-5048.491333
 20
-730.1016199999994
 30
0.0
 40
120.0
100
AcDbArc
 50
233.4836348999942
 51
256.2931212999605
  0
LINE
  5
589D
330
53E2
100
AcDbEntity
  8
0
  6
Continuous
100
AcDbLine
 10
-3733.299315999999
 20
774.6586340000012
 30
0.0
 11
-3793.732723
 21
905.5223490000026
 31
0.0
  0
LWPOLYLINE
  5
589E
330
53E2
100
AcDbEntity
  8
0
  6
Continuous
100
AcDbPolyline
 90
        3
 70
     0
 43
0.0
 10
-4979.320799999999
 20
1095.434025
 10
-4986.248535000001
 20
1112.193790000001
 10
-5062.88916
 20
1093.500431
  0
ARC
  5
589F
330
53E2
100
AcDbEntity
  8
0
  6
Continuous
100
AcDbCircle
 10
-4956.42041
 20
976.7484780000014
 30
0.0
 40
120.0
100
AcDbArc
 50
94.02761840998527
 51
167.9186400999793
  0
ARC
  5
58A0
330
53E2
100
AcDbEntity
  8
0
  6
Continuous
100
AcDbCircle
 10
-4975.736815999999
 20
966.0297280000014
 30
0.0
 40
70.0
100
AcDbArc
 50
78.69003296000801
 51
168.2267455999852
  0
ARC
  5
58A1
330
53E2
100
AcDbEntity
  8
0
  6
Continuous
100
AcDbCircle
 10
-4976.146972000001
 20
966.1117590000012
 30
0.0
 40
50.0
100
AcDbArc
 50
78.69006347999889
 51
168.2908935999849
  0
LINE
  5
58A2
330
53E2
100
AcDbEntity
  8
0
  6
Continuous
100
AcDbLine
 10
-4966.342285000001
 20
1015.141056
 30
0.0
 11
-4740.978661999999
 21
970.068865000001
 31
0.0
  0
ARC
  5
58A3
330
53E2
100
AcDbEntity
  8
0
  6
Continuous
100
AcDbCircle
 10
-3682.336181000001
 20
868.8598060000003
 30
0.0
 40
20.0
100
AcDbArc
 50
0.0
 51
44.02487183002257
  0
LINE
  5
58A4
330
53E2
100
AcDbEntity
  8
0
  6
Continuous
100
AcDbLine
 10
-3667.955322
 20
882.758243000002
 30
0.0
 11
-3717.065423999998
 21
964.5543420000013
 31
0.0
  0
LINE
  5
58A5
330
53E2
100
AcDbEntity
  8
0
  6
Continuous
100
AcDbLine
 10
-3733.299315999999
 20
124.9945710000011
 30
0.0
 11
-3733.299315999999
 21
178.7316400000018
 31
0.0
  0
LINE
  5
58A6
330
53E2
100
AcDbEntity
  8
0
  6
Continuous
100
AcDbLine
 10
-3824.713378999999
 20
1122.158634000001
 30
0.0
 11
-3843.617674999999
 21
988.2680090000013
 31
0.0
  0
LINE
  5
58A7
330
53E2
100
AcDbEntity
  8
0
  6
Continuous
100
AcDbLine
 10
-4737.176171999999
 20
989.7033930000016
 30
0.0
 11
-4962.008301
 21
1034.670353000001
 31
0.0
  0
ARC
  5
58A8
330
53E2
100
AcDbEntity
  8
0
  6
Continuous
100
AcDbCircle
 10
1454.528902
 20
233.8812900000012
 30
0.0
 40
6173.366211
100
AcDbArc
 50
173.6808876999871
 51
176.8250063999947
  0
ARC
  5
58A9
330
53E2
100
AcDbEntity
  8
0
  6
Continuous
100
AcDbCircle
 10
1434.528902
 20
233.8812900000012
 30
0.0
 40
6173.366211
100
AcDbArc
 50
173.6607096000187
 51
176.8161414999751
  0
ARC
  5
58AA
330
53E2
100
AcDbEntity
  8
0
  6
Continuous
100
AcDbCircle
 10
-3418.316845
 20
-190.3413659999987
 30
0.0
 40
7.5
100
AcDbArc
 50
143.8833869000226
 51
216.1166130999774
  0
LINE
  5
58AB
330
53E2
100
AcDbEntity
  8
0
  6
Continuous
100
AcDbLine
 10
-3455.816845
 20
-135.3413659999987
 30
0.0
 11
-3440.097049
 21
-195.9869589999998
 31
0.0
  0
LINE
  5
58AC
330
53E2
100
AcDbEntity
  8
0
  6
Continuous
100
AcDbLine
 10
-3455.816845
 20
-105.3413659999987
 30
0.0
 11
-3455.816845
 21
-135.3413659999987
 31
0.0
  0
ARC
  5
58AD
330
53E2
100
AcDbEntity
  8
0
  6
Continuous
100
AcDbCircle
 10
-3418.316845
 20
-190.3413659999987
 30
0.0
 40
22.5
100
AcDbArc
 50
105.6210109000276
 51
254.3789890999724
  0
LINE
  5
58AE
330
53E2
100
AcDbEntity
  8
0
  6
Continuous
100
AcDbLine
 10
-3447.875488
 20
897.6586340000013
 30
0.0
 11
-3447.875488
 21
882.6586340000012
 31
0.0
  0
LWPOLYLINE
  5
58AF
330
53E2
100
AcDbEntity
  8
0
  6
Continuous
100
AcDbPolyline
 90
        5
 70
     0
 43
0.0
 10
-3425.875488
 20
900.1586340000013
 10
-3430.875488
 20
900.1586340000013
 10
-3430.875488
 20
880.1586340000012
 10
-3425.875488
 20
880.1586340000012
 10
-3425.875488
 20
900.1586340000013
  0
LWPOLYLINE
  5
58B0
330
53E2
100
AcDbEntity
  8
0
  6
Continuous
100
AcDbPolyline
 90
        5
 70
     0
 43
0.0
 10
-3417.875488
 20
897.6586340000013
 10
-3452.875488
 20
897.6586340000013
 10
-3452.875488
 20
882.6586340000012
 10
-3417.875488
 20
882.6586340000012
 10
-3417.875488
 20
897.6586340000013
  0
LINE
  5
58B1
330
53E2
100
AcDbEntity
  8
0
  6
Continuous
100
AcDbLine
 10
-3542.875488
 20
714.6586340000013
 30
0.0
 11
-3527.875488
 21
714.6586340000013
 31
0.0
  0
LINE
  5
58B2
330
53E2
100
AcDbEntity
  8
0
  6
Continuous
100
AcDbLine
 10
-3527.875488
 20
714.6586340000013
 30
0.0
 11
-3527.875488
 21
684.6586340000012
 31
0.0
  0
LINE
  5
58B3
330
53E2
100
AcDbEntity
  8
0
  6
Continuous
100
AcDbLine
 10
-3542.875488
 20
684.6586340000012
 30
0.0
 11
-3542.875488
 21
714.6586340000013
 31
0.0
  0
LINE
  5
58B4
330
53E2
100
AcDbEntity
  8
0
  6
Continuous
100
AcDbLine
 10
-3512.875488
 20
677.1586340000013
 30
0.0
 11
-3535.375488
 21
677.1586340000013
 31
0.0
  0
LINE
  5
58B5
330
53E2
100
AcDbEntity
  8
0
  6
Continuous
100
AcDbLine
 10
-3535.375488
 20
692.1586340000012
 30
0.0
 11
-3512.875488
 21
692.1586340000012
 31
0.0
  0
LWPOLYLINE
  5
58B6
330
53E2
100
AcDbEntity
  8
0
  6
Continuous
100
AcDbPolyline
 90
        5
 70
     0
 43
0.0
 10
-3502.875488
 20
699.6586340000012
 10
-3512.875488
 20
699.6586340000012
 10
-3512.875488
 20
669.6586340000012
 10
-3502.875488
 20
669.6586340000012
 10
-3502.875488
 20
699.6586340000012
  0
CIRCLE
  5
58B7
330
53E2
100
AcDbEntity
  8
0
  6
Continuous
100
AcDbCircle
 10
-3535.375488
 20
684.6586340000012
 30
0.0
 40
7.5
  0
LINE
  5
58B8
330
53E2
100
AcDbEntity
  8
0
  6
Continuous
100
AcDbLine
 10
-2652.875488
 20
699.6586340000012
 30
0.0
 11
-2647.875488
 21
699.6586340000012
 31
0.0
  0
LINE
  5
58B9
330
53E2
100
AcDbEntity
  8
0
  6
Continuous
100
AcDbLine
 10
-3389.875488
 20
930.1586340000012
 30
0.0
 11
-3399.875488
 21
899.1586340000012
 31
0.0
  0
LWPOLYLINE
  5
58BA
330
53E2
100
AcDbEntity
  8
0
  6
Continuous
100
AcDbPolyline
 90
        3
 70
     0
 43
0.0
 10
-3389.875488
 20
810.1586340000013
 10
-3399.875488
 20
854.1586340000012
 10
-3399.875488
 20
864.1586340000012
  0
LWPOLYLINE
  5
58BB
330
53E2
100
AcDbEntity
  8
0
  6
Continuous
100
AcDbPolyline
 90
        5
 70
     0
 43
0.0
 10
-3417.875488
 20
864.1586340000012
 10
-3399.875488
 20
864.1586340000012
 10
-3399.875488
 20
899.1586340000012
 10
-3417.875488
 20
899.1586340000012
 10
-3417.875488
 20
864.1586340000012
  0
LINE
  5
58BC
330
53E2
100
AcDbEntity
  8
0
  6
Continuous
100
AcDbLine
 10
-3389.875488
 20
930.1586340000012
 30
0.0
 11
-3292.875488
 21
930.1586340000012
 31
0.0
  0
LINE
  5
58BD
330
53E2
100
AcDbEntity
  8
0
  6
Continuous
100
AcDbLine
 10
-3292.875488
 20
810.1586340000013
 30
0.0
 11
-3389.875488
 21
810.1586340000013
 31
0.0
  0
LINE
  5
58BE
330
53E2
100
AcDbEntity
  8
0
  6
Continuous
100
AcDbLine
 10
-3252.875487999999
 20
962.6586340000013
 30
0.0
 11
-3252.875487999999
 21
544.6586340000012
 31
0.0
  0
LINE
  5
58BF
330
53E2
100
AcDbEntity
  8
0
  6
Continuous
100
AcDbLine
 10
-3292.875488
 20
962.6586340000013
 30
0.0
 11
-3292.875488
 21
544.6586340000012
 31
0.0
  0
ARC
  5
58C0
330
53E2
100
AcDbEntity
  8
0
  6
Continuous
100
AcDbCircle
 10
-2688.50343
 20
617.1586340000012
 30
0.0
 40
30.0
100
AcDbArc
 50
270.0
 51
350.467756900021
  0
ARC
  5
58C1
330
53E2
100
AcDbEntity
  8
0
  6
Continuous
100
AcDbCircle
 10
-2688.50343
 20
752.1586340000013
 30
0.0
 40
30.0
100
AcDbArc
 50
9.532243058977952
 51
90.0
  0
ARC
  5
58C2
330
53E2
100
AcDbEntity
  8
0
  6
Continuous
100
AcDbCircle
 10
-3467.247546000001
 20
617.1586340000012
 30
0.0
 40
30.0
100
AcDbArc
 50
189.5322430999789
 51
270.0
  0
ARC
  5
58C3
330
53E2
100
AcDbEntity
  8
0
  6
Continuous
100
AcDbCircle
 10
-3467.247546000001
 20
752.1586340000013
 30
0.0
 40
30.0
100
AcDbArc
 50
90.0
 51
170.467756900021
  0
LINE
  5
58C4
330
53E2
100
AcDbEntity
  8
0
  6
Continuous
100
AcDbLine
 10
-3467.247546000001
 20
587.1586340000012
 30
0.0
 11
-3456.875488
 21
587.1586340000012
 31
0.0
  0
LINE
  5
58C5
330
53E2
100
AcDbEntity
  8
0
  6
Continuous
100
AcDbLine
 10
-2688.50343
 20
587.1586340000012
 30
0.0
 11
-2698.875488
 21
587.1586340000012
 31
0.0
  0
LINE
  5
58C6
330
53E2
100
AcDbEntity
  8
0
  6
Continuous
100
AcDbLine
 10
-2688.50343
 20
782.1586340000012
 30
0.0
 11
-2698.875488
 21
782.1586340000012
 31
0.0
  0
LINE
  5
58C7
330
53E2
100
AcDbEntity
  8
0
  6
Continuous
100
AcDbLine
 10
-3467.247546000001
 20
782.1586340000012
 30
0.0
 11
-3456.875488
 21
782.1586340000012
 31
0.0
  0
ARC
  5
58C8
330
53E2
100
AcDbEntity
  8
0
  6
Continuous
100
AcDbCircle
 10
-3090.477760999999
 20
684.6586340000012
 30
0.0
 40
437.6022727
100
AcDbArc
 50
350.467756900021
 51
9.532243099978982
  0
ARC
  5
58C9
330
53E2
100
AcDbEntity
  8
0
  6
Continuous
100
AcDbCircle
 10
-3065.273215
 20
684.6586340000012
 30
0.0
 40
437.6022727
100
AcDbArc
 50
170.467756900021
 51
189.5322430999789
  0
LINE
  5
58CA
330
53E2
100
AcDbEntity
  8
0
  6
Continuous
100
AcDbLine
 10
-2698.875488
 20
587.1586340000012
 30
0.0
 11
-2712.875488
 21
587.1586340000012
 31
0.0
  0
LINE
  5
58CB
330
53E2
100
AcDbEntity
  8
0
  6
Continuous
100
AcDbLine
 10
-2698.875488
 20
782.1586340000012
 30
0.0
 11
-2712.875488
 21
782.1586340000012
 31
0.0
  0
LINE
  5
58CC
330
53E2
100
AcDbEntity
  8
0
  6
Continuous
100
AcDbLine
 10
-2698.875488
 20
587.1586340000012
 30
0.0
 11
-2698.875488
 21
782.1586340000012
 31
0.0
  0
LINE
  5
58CD
330
53E2
100
AcDbEntity
  8
0
  6
Continuous
100
AcDbLine
 10
-3456.875488
 20
782.1586340000012
 30
0.0
 11
-3456.875488
 21
587.1586340000012
 31
0.0
  0
ENDBLK
  5
53E4
330
53E2
100
AcDbEntity
  8
0
 62
   250
100
AcDbBlockEnd
  0
BLOCK
  5
58DB
330
58D1
100
AcDbEntity
  8
0
 62
   250
100
AcDbBlockBegin
  2
*D281
 70
     1
 10
0.0
 20
0.0
 30
0.0
  3
*D281
  1

  0
LINE
  5
58D2
330
58D1
100
AcDbEntity
  8
0
  6
Continuous
 62
     0
370
    -2
100
AcDbLine
 10
5965.0
 20
8857.907642329935
 30
0.0
 11
5965.0
 21
9364.033976635516
 31
0.0
  0
LINE
  5
58D3
330
58D1
100
AcDbEntity
  8
0
  6
Continuous
 62
     0
370
    -2
100
AcDbLine
 10
9885.0
 20
8778.423114329935
 30
0.0
 11
9885.0
 21
9364.033976635516
 31
0.0
  0
LINE
  5
58D4
330
58D1
100
AcDbEntity
  8
0
  6
Continuous
 62
     0
370
    -2
100
AcDbLine
 10
6045.0
 20
9284.033976635518
 30
0.0
 11
9805.0
 21
9284.033976635518
 31
0.0
  0
SOLID
  5
58D5
330
58D1
100
AcDbEntity
  8
0
  6
Continuous
 62
     0
100
AcDbTrace
 10
6045.0
 20
9297.367309968851
 30
0.0
 11
6045.0
 21
9270.700643302182
 31
0.0
 12
5965.0
 22
9284.033976635518
 32
0.0
 13
5965.0
 23
9284.033976635518
 33
0.0
  0
SOLID
  5
58D6
330
58D1
100
AcDbEntity
  8
0
  6
Continuous
 62
     0
100
AcDbTrace
 10
9805.0
 20
9297.367309968851
 30
0.0
 11
9805.0
 21
9270.700643302182
 31
0.0
 12
9885.0
 22
9284.033976635518
 32
0.0
 13
9885.0
 23
9284.033976635518
 33
0.0
  0
MTEXT
  5
58D7
330
58D1
100
AcDbEntity
  8
0
  6
Continuous
 62
     0
100
AcDbMText
 10
7925.0
 20
9343.233976635518
 30
0.0
 40
80.0
 41
0.0
 71
     5
 72
     1
  1
\A1;3920.0
 73
     1
 44
1.0
1001
ACAD
1000
MTEXTBEGIN
1070
    73
1070
     1
1070
    44
1040
1.0
1070
    74
1070
     0
1000
MTEXTEND
  0
POINT
  5
58D8
330
58D1
100
AcDbEntity
  8
Defpoints
  6
Continuous
 62
     0
100
AcDbPoint
 10
5965.0
 20
8838.707642759935
 30
0.0
  0
POINT
  5
58D9
330
58D1
100
AcDbEntity
  8
Defpoints
  6
Continuous
 62
     0
100
AcDbPoint
 10
9885.0
 20
8759.223114759935
 30
0.0
  0
POINT
  5
58DA
330
58D1
100
AcDbEntity
  8
Defpoints
  6
Continuous
 62
     0
100
AcDbPoint
 10
9885.0
 20
9284.033976635518
 30
0.0
  0
ENDBLK
  5
58DC
330
58D1
100
AcDbEntity
  8
0
 62
   250
100
AcDbBlockEnd
  0
ENDSEC
  0
SECTION
  2
ENTITIES
  0
INSERT
  5
58CE
330
18
100
AcDbEntity
  8
0
  6
Continuous
 62
   250
100
AcDbBlockReference
  2
kou26
 10
8612.875488
 20
7624.049008759934
 30
0.0
  0
VIEWPORT
  5
536A
102
{ACAD_XDICTIONARY
360
58EF
102
}
330
15
100
AcDbEntity
 67
     1
  8
0
  6
Continuous
 62
   250
100
AcDbViewport
 10
8.306981250288032
 20
18.26796705999227
 30
0.0
 40
11.90458196312873
 41
6.294822384412263
 68
     1
 69
     1
 12
8.306981250288032
 22
18.26796705999227
 13
0.0
 23
0.0
 14
1.0
 24
1.0
 15
0.0
 25
0.0
 16
0.0
 26
0.0
 36
1.0
 17
0.0
 27
0.0
 37
0.0
 42
50.0
 43
0.0
 44
0.0
 45
6.294822384412263
 50
0.0
 51
0.0
 72
   100
 90
    32800
  1

281
     0
 71
     1
 74
     0
110
0.0
120
0.0
130
0.0
111
1.0
121
0.0
131
0.0
112
0.0
122
1.0
132
0.0
 79
     0
146
0.0
  0
TEXT
  5
53BF
330
15
100
AcDbEntity
 67
     1
  8
0
  6
Continuous
 62
   250
100
AcDbText
 10
6.138099267937292
 20
3.900614745123881
 30
0.0
 40
200.0
  1
アイチ
100
AcDbText
  0
ENDSEC
  0
SECTION
  2
OBJECTS
  0
DICTIONARY
  5
C
330
0
100
AcDbDictionary
281
     1
  3
ACAD_COLOR
350
53D9
  3
ACAD_GROUP
350
D
  3
ACAD_LAYOUT
350
53DA
  3
ACAD_MATERIAL
350
53D8
  3
ACAD_MLINESTYLE
350
1B
  3
ACAD_PLOTSETTINGS
350
53DB
  3
ACAD_PLOTSTYLENAME
350
53D6
  3
ACDBHEADERROUNDTRIPXREC
350
58EC
  3
AcDbVariableDictionary
350
58DE
  0
DICTIONARY
  5
58EF
330
536A
100
AcDbDictionary
280
     1
281
     1
  3
ACAD_XREC_ROUNDTRIP
360
58F0
  0
DICTIONARY
  5
53D9
102
{ACAD_REACTORS
330
C
102
}
330
C
100
AcDbDictionary
281
     1
  0
DICTIONARY
  5
D
102
{ACAD_REACTORS
330
C
102
}
330
C
100
AcDbDictionary
281
     1
  0
DICTIONARY
  5
53DA
102
{ACAD_REACTORS
330
C
102
}
330
C
100
AcDbDictionary
281
     1
  3
Model
350
53DC
  3
レイアウト1
350
53DD
  0
DICTIONARY
  5
53D8
102
{ACAD_REACTORS
330
C
102
}
330
C
100
AcDbDictionary
281
     1
  0
DICTIONARY
  5
1B
102
{ACAD_REACTORS
330
C
102
}
330
C
100
AcDbDictionary
281
     1
  3
STANDARD
350
1C
  0
DICTIONARY
  5
53DB
102
{ACAD_REACTORS
330
C
102
}
330
C
100
AcDbDictionary
281
     1
  0
ACDBDICTIONARYWDFLT
  5
53D6
102
{ACAD_REACTORS
330
C
102
}
330
C
100
AcDbDictionary
281
     1
  3
Normal
350
53D7
100
AcDbDictionaryWithDefault
340
53D7
  0
DICTIONARY
  5
58EC
102
{ACAD_REACTORS
330
C
102
}
330
C
100
AcDbDictionary
281
     1
  3
COLORDICT
350
58EE
  3
MATERIALDICT
350
58ED
  0
DICTIONARY
  5
58DE
102
{ACAD_REACTORS
330
C
102
}
330
C
100
AcDbDictionary
281
     1
  3
DIMASSOC
350
58DF
  3
PROJECTNAME
350
58E0
  0
XRECORD
  5
58F0
102
{ACAD_REACTORS
330
58EF
102
}
330
58EF
100
AcDbXrecord
280
     1
102
SHADEPLOT
 70
     0
  0
LAYOUT
  5
53DC
102
{ACAD_XDICTIONARY
360
58F1
102
}
102
{ACAD_REACTORS
330
53DA
102
}
330
53DA
100
AcDbPlotSettings
  1

  2
none_device
  4
Letter_(8.50_x_11.00_Inches)
  6

 40
6.349999904632568
 41
6.349999904632568
 42
6.350006103515625
 43
6.350006103515625
 44
215.8999938964844
 45
279.3999938964844
 46
0.0
 47
0.0
 48
0.0
 49
0.0
140
0.0
141
0.0
142
1.0
143
1.0
 70
 11952
 72
     0
 73
     1
 74
     0
  7

 75
     0
147
1.0
148
-110501.2065920027
149
-124806.4593529544
100
AcDbLayout
  1
Model
 70
     1
 71
     0
 10
0.0
 20
0.0
 11
12.0
 21
9.0
 12
0.0
 22
0.0
 32
0.0
 14
0.0
 24
0.0
 34
0.0
 15
0.0
 25
0.0
 35
0.0
146
0.0
 13
0.0
 23
0.0
 33
0.0
 16
1.0
 26
0.0
 36
0.0
 17
0.0
 27
1.0
 37
0.0
 76
     0
330
18
  0
LAYOUT
  5
53DD
102
{ACAD_XDICTIONARY
360
58F3
102
}
102
{ACAD_REACTORS
330
53DA
102
}
330
53DA
100
AcDbPlotSettings
  1

  2
EPSON5992D5#:1
  4

  6

 40
0.0
 41
0.0
 42
0.0
 43
0.0
 44
0.0
 45
0.0
 46
0.0
 47
0.0
 48
0.0
 49
0.0
140
0.0
141
0.0
142
1.0
143
1.0
 70
   688
 72
     0
 73
     0
 74
     5
  7

 75
    16
147
1.0
148
0.0
149
0.0
100
AcDbLayout
  1
レイアウト1
 70
     1
 71
     1
 10
0.0
 20
0.0
 11
12.0
 21
9.0
 12
0.0
 22
0.0
 32
0.0
 14
6.138099267937292
 24
3.900614745123903
 34
0.0
 15
439.4714326012705
 25
203.900614745124
 35
0.0
146
0.0
 13
0.0
 23
0.0
 33
0.0
 16
1.0
 26
0.0
 36
0.0
 17
0.0
 27
1.0
 37
0.0
 76
     0
330
15
331
536A
  0
MLINESTYLE
  5
1C
102
{ACAD_REACTORS
330
1B
102
}
330
1B
100
AcDbMlineStyle
  2
STANDARD
 70
     0
  3

 62
   256
 51
90.0
 52
90.0
 71
     2
 49
0.5
 62
   256
  6
BYLAYER
 49
-0.5
 62
   256
  6
BYLAYER
  0
ACDBPLACEHOLDER
  5
53D7
102
{ACAD_REACTORS
330
53D6
102
}
330
53D6
  0
XRECORD
  5
58EE
102
{ACAD_REACTORS
330
58EC
102
}
330
58EC
100
AcDbXrecord
280
     1
340
53D9
  0
XRECORD
  5
58ED
102
{ACAD_REACTORS
330
58EC
102
}
330
58EC
100
AcDbXrecord
280
     1
340
53D8
  0
DICTIONARYVAR
  5
58DF
102
{ACAD_REACTORS
330
58DE
102
}
330
58DE
100
DictionaryVariables
280
     0
  1
1
  0
DICTIONARYVAR
  5
58E0
102
{ACAD_REACTORS
330
58DE
102
}
330
58DE
100
DictionaryVariables
280
     0
  1

  0
DICTIONARY
  5
58F1
330
53DC
100
AcDbDictionary
280
     1
281
     1
  3
ACAD_XREC_ROUNDTRIP
360
58F2
  0
DICTIONARY
  5
58F3
330
53DD
100
AcDbDictionary
280
     1
281
     1
  3
ACAD_XREC_ROUNDTRIP
360
58F4
  0
XRECORD
  5
58F2
102
{ACAD_REACTORS
330
58F1
102
}
330
58F1
100
AcDbXrecord
280
     1
102
SHADEPLOT
 70
     0
102
SHADEPLOTRESLEVEL
 70
     2
102
SHADEPLOTCUSTOMDPI
 70
   300
  0
XRECORD
  5
58F4
102
{ACAD_REACTORS
330
58F3
102
}
330
58F3
100
AcDbXrecord
280
     1
102
SHADEPLOT
 70
     0
102
SHADEPLOTRESLEVEL
 70
     2
102
SHADEPLOTCUSTOMDPI
 70
   300
  0
ENDSEC
  0
EOF
